  0
SECTION
  2
HEADER
  9
$ACADVER
  1
AC1015
  9
$ACADMAINTVER
 70
     6
  9
$DWGCODEPAGE
  3
ANSI_1251
  9
$INSBASE
 10
0.0
 20
0.0
 30
0.0
  9
$EXTMIN
 10
296.5191846093
 20
-1485.9105982798
 30
0.0
  9
$EXTMAX
 10
938.0096459274
 20
366.0894017202
 30
0.0
  9
$LIMMIN
 10
0.0
 20
0.0
  9
$LIMMAX
 10
420.0
 20
297.0
  9
$ORTHOMODE
 70
     0
  9
$REGENMODE
 70
     1
  9
$FILLMODE
 70
     1
  9
$QTEXTMODE
 70
     0
  9
$MIRRTEXT
 70
     1
  9
$LTSCALE
 40
1.0
  9
$ATTMODE
 70
     1
  9
$TEXTSIZE
 40
3.0
  9
$TRACEWID
 40
1.0
  9
$TEXTSTYLE
  7
Standard
  9
$CLAYER
  8
0
  9
$CELTYPE
  6
ByLayer
  9
$CECOLOR
 62
   256
  9
$CELTSCALE
 40
1.0
  9
$DISPSILH
 70
     0
  9
$DIMSCALE
 40
1.0
  9
$DIMASZ
 40
3.0
  9
$DIMEXO
 40
0.0
  9
$DIMDLI
 40
3.75
  9
$DIMRND
 40
0.0
  9
$DIMDLE
 40
0.0
  9
$DIMEXE
 40
2.0
  9
$DIMTP
 40
0.0
  9
$DIMTM
 40
0.0
  9
$DIMTXT
 40
3.0
  9
$DIMCEN
 40
2.5
  9
$DIMTSZ
 40
0.0
  9
$DIMTOL
 70
     0
  9
$DIMLIM
 70
     0
  9
$DIMTIH
 70
     1
  9
$DIMTOH
 70
     1
  9
$DIMSE1
 70
     0
  9
$DIMSE2
 70
     0
  9
$DIMTAD
 70
     1
  9
$DIMZIN
 70
     0
  9
$DIMBLK
  1

  9
$DIMASO
 70
     1
  9
$DIMSHO
 70
     1
  9
$DIMPOST
  1

  9
$DIMAPOST
  1

  9
$DIMALT
 70
     0
  9
$DIMALTD
 70
     3
  9
$DIMALTF
 40
0.0393700787
  9
$DIMLFAC
 40
1.0
  9
$DIMTOFL
 70
     1
  9
$DIMTVP
 40
0.0
  9
$DIMTIX
 70
     0
  9
$DIMSOXD
 70
     0
  9
$DIMSAH
 70
     0
  9
$DIMBLK1
  1

  9
$DIMBLK2
  1

  9
$DIMSTYLE
  2
ISO-25
  9
$DIMCLRD
 70
     0
  9
$DIMCLRE
 70
     0
  9
$DIMCLRT
 70
     0
  9
$DIMTFAC
 40
1.0
  9
$DIMGAP
 40
2.0
  9
$DIMJUST
 70
     0
  9
$DIMSD1
 70
     0
  9
$DIMSD2
 70
     0
  9
$DIMTOLJ
 70
     0
  9
$DIMTZIN
 70
     0
  9
$DIMALTZ
 70
     0
  9
$DIMALTTZ
 70
     0
  9
$DIMUPT
 70
     0
  9
$DIMDEC
 70
     2
  9
$DIMTDEC
 70
     2
  9
$DIMALTU
 70
     2
  9
$DIMALTTD
 70
     3
  9
$DIMTXSTY
  7
Standard
  9
$DIMAUNIT
 70
     0
  9
$DIMADEC
 70
     2
  9
$DIMALTRND
 40
0.0
  9
$DIMAZIN
 70
     0
  9
$DIMDSEP
 70
    44
  9
$DIMATFIT
 70
     3
  9
$DIMFRAC
 70
     0
  9
$DIMLDRBLK
  1

  9
$DIMLUNIT
 70
     2
  9
$DIMLWD
 70
    -2
  9
$DIMLWE
 70
    -2
  9
$DIMTMOVE
 70
     0
  9
$LUNITS
 70
     2
  9
$LUPREC
 70
     2
  9
$SKETCHINC
 40
1.0
  9
$FILLETRAD
 40
10.0
  9
$AUNITS
 70
     1
  9
$AUPREC
 70
     2
  9
$MENU
  1
.
  9
$ELEVATION
 40
0.0
  9
$PELEVATION
 40
0.0
  9
$THICKNESS
 40
0.0
  9
$LIMCHECK
 70
     0
  9
$CHAMFERA
 40
0.0
  9
$CHAMFERB
 40
0.0
  9
$CHAMFERC
 40
0.0
  9
$CHAMFERD
 40
0.0
  9
$SKPOLY
 70
     0
  9
$TDCREATE
 40
2459306.440957778
  9
$TDUCREATE
 40
2459306.315957778
  9
$TDUPDATE
 40
2459306.440987766
  9
$TDUUPDATE
 40
2459306.315987766
  9
$TDINDWG
 40
0.0000000116
  9
$TDUSRTIMER
 40
0.0000000116
  9
$USRTIMER
 70
     1
  9
$ANGBASE
 50
0.0
  9
$ANGDIR
 70
     0
  9
$PDMODE
 70
     0
  9
$PDSIZE
 40
-1.0
  9
$PLINEWID
 40
0.0
  9
$SPLFRAME
 70
     0
  9
$SPLINETYPE
 70
     6
  9
$SPLINESEGS
 70
     8
  9
$HANDSEED
  5
38F
  9
$SURFTAB1
 70
     6
  9
$SURFTAB2
 70
     6
  9
$SURFTYPE
 70
     6
  9
$SURFU
 70
     6
  9
$SURFV
 70
     6
  9
$UCSBASE
  2

  9
$UCSNAME
  2

  9
$UCSORG
 10
0.0
 20
0.0
 30
0.0
  9
$UCSXDIR
 10
1.0
 20
0.0
 30
0.0
  9
$UCSYDIR
 10
0.0
 20
1.0
 30
0.0
  9
$UCSORTHOREF
  2

  9
$UCSORTHOVIEW
 70
     0
  9
$UCSORGTOP
 10
0.0
 20
0.0
 30
0.0
  9
$UCSORGBOTTOM
 10
0.0
 20
0.0
 30
0.0
  9
$UCSORGLEFT
 10
0.0
 20
0.0
 30
0.0
  9
$UCSORGRIGHT
 10
0.0
 20
0.0
 30
0.0
  9
$UCSORGFRONT
 10
0.0
 20
0.0
 30
0.0
  9
$UCSORGBACK
 10
0.0
 20
0.0
 30
0.0
  9
$PUCSBASE
  2

  9
$PUCSNAME
  2

  9
$PUCSORG
 10
0.0
 20
0.0
 30
0.0
  9
$PUCSXDIR
 10
1.0
 20
0.0
 30
0.0
  9
$PUCSYDIR
 10
0.0
 20
1.0
 30
0.0
  9
$PUCSORTHOREF
  2

  9
$PUCSORTHOVIEW
 70
     0
  9
$PUCSORGTOP
 10
0.0
 20
0.0
 30
0.0
  9
$PUCSORGBOTTOM
 10
0.0
 20
0.0
 30
0.0
  9
$PUCSORGLEFT
 10
0.0
 20
0.0
 30
0.0
  9
$PUCSORGRIGHT
 10
0.0
 20
0.0
 30
0.0
  9
$PUCSORGFRONT
 10
0.0
 20
0.0
 30
0.0
  9
$PUCSORGBACK
 10
0.0
 20
0.0
 30
0.0
  9
$USERI1
 70
     0
  9
$USERI2
 70
     0
  9
$USERI3
 70
     0
  9
$USERI4
 70
     0
  9
$USERI5
 70
     0
  9
$USERR1
 40
0.0
  9
$USERR2
 40
0.0
  9
$USERR3
 40
0.0
  9
$USERR4
 40
0.0
  9
$USERR5
 40
0.0
  9
$WORLDVIEW
 70
     1
  9
$SHADEDGE
 70
     3
  9
$SHADEDIF
 70
    70
  9
$TILEMODE
 70
     1
  9
$MAXACTVP
 70
    64
  9
$PINSBASE
 10
0.0
 20
0.0
 30
0.0
  9
$PLIMCHECK
 70
     0
  9
$PEXTMIN
 10
1.0000000000E+20
 20
1.0000000000E+20
 30
1.0000000000E+20
  9
$PEXTMAX
 10
-1.0000000000E+20
 20
-1.0000000000E+20
 30
-1.0000000000E+20
  9
$PLIMMIN
 10
0.0
 20
0.0
  9
$PLIMMAX
 10
420.0
 20
297.0
  9
$UNITMODE
 70
     0
  9
$VISRETAIN
 70
     1
  9
$PLINEGEN
 70
     0
  9
$PSLTSCALE
 70
     1
  9
$TREEDEPTH
 70
  3020
  9
$CMLSTYLE
  2
Standard
  9
$CMLJUST
 70
     0
  9
$CMLSCALE
 40
20.0
  9
$PROXYGRAPHICS
 70
     1
  9
$MEASUREMENT
 70
     1
  9
$CELWEIGHT
370
    -1
  9
$ENDCAPS
280
     0
  9
$JOINSTYLE
280
     0
  9
$LWDISPLAY
290
     1
  9
$INSUNITS
 70
     4
  9
$HYPERLINKBASE
  1

  9
$STYLESHEET
  1

  9
$XEDIT
290
     1
  9
$CEPSNTYPE
380
     0
  9
$PSTYLEMODE
290
     1
  9
$FINGERPRINTGUID
  2
{5604A578-6811-4C27-8038-9D34BCAE5D6B}
  9
$VERSIONGUID
  2
{FAEB1C32-E019-11D5-929B-00C0DF256EC4}
  9
$EXTNAMES
290
     1
  9
$PSVPSCALE
 40
0.0
  9
$OLESTARTUP
290
     0
  0
ENDSEC
  0
SECTION
  2
CLASSES
  0
CLASS
  1
ACDBDICTIONARYWDFLT
  2
AcDbDictionaryWithDefault
  3
ObjectDBX Classes
 90
        0
280
     0
281
     0
  0
CLASS
  1
VISUALSTYLE
  2
AcDbVisualStyle
  3
ObjectDBX Classes
 90
     4095
280
     0
281
     0
  0
CLASS
  1
MATERIAL
  2
AcDbMaterial
  3
ObjectDBX Classes
 90
     1153
280
     0
281
     0
  0
CLASS
  1
SCALE
  2
AcDbScale
  3
ObjectDBX Classes
 90
     1153
280
     0
281
     0
  0
CLASS
  1
SUN
  2
AcDbSun
  3
SCENEOE
 90
     1153
280
     0
281
     0
  0
CLASS
  1
ACDBPLACEHOLDER
  2
AcDbPlaceHolder
  3
ObjectDBX Classes
 90
        0
280
     0
281
     0
  0
CLASS
  1
LAYOUT
  2
AcDbLayout
  3
ObjectDBX Classes
 90
        0
280
     0
281
     0
  0
ENDSEC
  0
SECTION
  2
TABLES
  0
TABLE
  2
VPORT
  5
8
330
0
100
AcDbSymbolTable
 70
     1
  0
VPORT
  5
29
330
8
100
AcDbSymbolTableRecord
100
AcDbViewportTableRecord
  2
*Active
 70
     0
 10
0.0
 20
0.0
 11
1.0
 21
1.0
 12
617.2644152684
 22
-559.9105982798
 13
0.0
 23
0.0
 14
10.0
 24
10.0
 15
10.0
 25
10.0
 16
0.0
 26
0.0
 36
1.0
 17
0.0
 27
0.0
 37
0.0
 40
1889.04
 41
0.3463771389
 42
50.0
 43
0.0
 44
0.0
 50
0.0
 51
0.0
 71
     0
 72
   100
 73
     1
 74
     3
 75
     0
 76
     0
 77
     0
 78
     0
281
     0
 65
     1
110
0.0
120
0.0
130
0.0
111
1.0
121
0.0
131
0.0
112
0.0
122
1.0
132
0.0
 79
     0
146
0.0
  0
ENDTAB
  0
TABLE
  2
LTYPE
  5
5
330
0
100
AcDbSymbolTable
 70
     6
  0
LTYPE
  5
14
330
5
100
AcDbSymbolTableRecord
100
AcDbLinetypeTableRecord
  2
ByBlock
 70
     0
  3

 72
    65
 73
     0
 40
0.0
  0
LTYPE
  5
15
330
5
100
AcDbSymbolTableRecord
100
AcDbLinetypeTableRecord
  2
ByLayer
 70
     0
  3

 72
    65
 73
     0
 40
0.0
  0
LTYPE
  5
16
330
5
100
AcDbSymbolTableRecord
100
AcDbLinetypeTableRecord
  2
Continuous
 70
     0
  3
Solid line
 72
    65
 73
     0
 40
0.0
  0
LTYPE
  5
6A
330
5
100
AcDbSymbolTableRecord
100
AcDbLinetypeTableRecord
  2
HIDDEN
 70
     0
  3
Hidden __ __ __ __ __ __ __ __ __ __ __ __ __ __
 72
    65
 73
     2
 40
1.905
 49
1.27
 74
     0
 49
-0.635
 74
     0
  0
LTYPE
  5
6B
330
5
100
AcDbSymbolTableRecord
100
AcDbLinetypeTableRecord
  2
PHANTOM
 70
     0
  3
Phantom ______  __  __  ______  __  __  ______
 72
    65
 73
     6
 40
12.7
 49
6.35
 74
     0
 49
-1.27
 74
     0
 49
1.27
 74
     0
 49
-1.27
 74
     0
 49
1.27
 74
     0
 49
-1.27
 74
     0
  0
LTYPE
  5
6C
330
5
100
AcDbSymbolTableRecord
100
AcDbLinetypeTableRecord
  2
CENTER
 70
     0
  3
Center ____ _ ____ _ ____ _ ____ _ ____ _ ____
 72
    65
 73
     4
 40
10.16
 49
6.35
 74
     0
 49
-1.27
 74
     0
 49
1.27
 74
     0
 49
-1.27
 74
     0
  0
LTYPE
  5
6D
330
5
100
AcDbSymbolTableRecord
100
AcDbLinetypeTableRecord
  2
CENTERX2
 70
     0
  3
Center (2x) ________  __  ________  __  _____
 72
    65
 73
     4
 40
20.32
 49
12.7
 74
     0
 49
-2.54
 74
     0
 49
2.54
 74
     0
 49
-2.54
 74
     0
  0
LTYPE
  5
6E
330
5
100
AcDbSymbolTableRecord
100
AcDbLinetypeTableRecord
  2
DOT2
 70
     0
  3
Dot (.5x) ........................................
 72
    65
 73
     2
 40
0.635
 49
0.0
 74
     0
 49
-0.635
 74
     0
  0
ENDTAB
  0
TABLE
  2
LAYER
  5
2
330
0
100
AcDbSymbolTable
 70
     1
  0
LAYER
  5
10
330
2
100
AcDbSymbolTableRecord
100
AcDbLayerTableRecord
  2
0
 70
     0
 62
     7
  6
Continuous
370
    -3
390
F
  0
ENDTAB
  0
TABLE
  2
STYLE
  5
3
330
0
100
AcDbSymbolTable
 70
     1
  0
STYLE
  5
11
330
3
100
AcDbSymbolTableRecord
100
AcDbTextStyleTableRecord
  2
Standard
 70
     0
 40
0.0
 41
1.0
 50
0.0
 71
     0
 42
3.0
  3
txt
  4

  0
ENDTAB
  0
TABLE
  2
VIEW
  5
6
330
0
100
AcDbSymbolTable
 70
     0
  0
ENDTAB
  0
TABLE
  2
UCS
  5
7
330
0
100
AcDbSymbolTable
 70
     0
  0
ENDTAB
  0
TABLE
  2
APPID
  5
9
330
0
100
AcDbSymbolTable
 70
     1
  0
APPID
  5
12
330
9
100
AcDbSymbolTableRecord
100
AcDbRegAppTableRecord
  2
ACAD
 70
     0
  0
ENDTAB
  0
TABLE
  2
DIMSTYLE
  5
A
330
0
100
AcDbSymbolTable
 70
     1
100
AcDbDimStyleTable
  0
DIMSTYLE
105
27
330
A
100
AcDbSymbolTableRecord
100
AcDbDimStyleTableRecord
  2
ISO-25
 70
     0
 41
2.5
 42
0.625
 43
3.75
 44
1.25
 73
     0
 74
     0
 77
     1
 78
     8
140
2.5
141
2.5
143
0.0393700787
147
0.625
171
     3
172
     1
178
     0
271
     2
272
     2
274
     3
278
    44
283
     0
284
     8
340
11
  0
ENDTAB
  0
TABLE
  2
BLOCK_RECORD
  5
1
330
0
100
AcDbSymbolTable
 70
     1
  0
BLOCK_RECORD
  5
1F
330
1
100
AcDbSymbolTableRecord
100
AcDbBlockTableRecord
  2
*Model_Space
340
22
  0
BLOCK_RECORD
  5
1B
330
1
100
AcDbSymbolTableRecord
100
AcDbBlockTableRecord
  2
*Paper_Space
340
1E
  0
BLOCK_RECORD
  5
23
330
1
100
AcDbSymbolTableRecord
100
AcDbBlockTableRecord
  2
*Paper_Space0
340
26
  0
ENDTAB
  0
ENDSEC
  0
SECTION
  2
BLOCKS
  0
BLOCK
  5
20
330
1F
100
AcDbEntity
  8
0
100
AcDbBlockBegin
  2
*Model_Space
 70
     0
 10
0.0
 20
0.0
 30
0.0
  3
*Model_Space
  1
*Model_Space
  0
ENDBLK
  5
21
330
1F
100
AcDbEntity
  8
0
100
AcDbBlockEnd
  0
BLOCK
  5
1C
330
1B
100
AcDbEntity
 67
     1
  8
0
100
AcDbBlockBegin
  2
*Paper_Space
 70
     0
 10
0.0
 20
0.0
 30
0.0
  3
*Paper_Space
  1
*Paper_Space
  0
ENDBLK
  5
1D
330
1B
100
AcDbEntity
 67
     1
  8
0
100
AcDbBlockEnd
  0
BLOCK
  5
24
330
23
100
AcDbEntity
  8
0
100
AcDbBlockBegin
  2
*Paper_Space0
 70
     0
 10
0.0
 20
0.0
 30
0.0
  3
*Paper_Space0
  1
*Paper_Space0
  0
ENDBLK
  5
25
330
23
100
AcDbEntity
  8
0
100
AcDbBlockEnd
  0
ENDSEC
  0
SECTION
  2
ENTITIES
  0
SPLINE
  5
6F
330
1F
100
AcDbEntity
  8
0
  6
Continuous
 62
     7
370
    15
100
AcDbSpline
210
0.0
220
0.0
230
1.0
 70
     8
 71
     3
 72
    11
 73
     7
 74
     0
 42
0.000000001
 43
0.00000001
 40
0.0
 40
0.0
 40
0.0
 40
0.0
 40
0.1292426929387846
 40
0.464693145515051
 40
0.7663150317294141
 40
1.0
 40
1.0
 40
1.0
 40
1.0
 10
378.9007109646873
 20
-1472.474655615375
 30
0.0
 10
379.1203359733099
 20
-1472.417500821692
 30
0.0
 10
379.9099994642964
 20
-1472.212000299735
 30
0.0
 10
381.0949145404815
 20
-1471.54572099017
 30
0.0
 10
382.3305827461708
 20
-1470.636079884119
 30
0.0
 10
382.9387082724895
 20
-1469.917870224334
 30
0.0
 10
383.2041817913353
 20
-1469.604340143125
 30
0.0
  0
SPLINE
  5
70
330
1F
100
AcDbEntity
  8
0
  6
Continuous
 62
     7
370
    15
100
AcDbSpline
210
0.0
220
0.0
230
1.0
 70
     8
 71
     3
 72
     9
 73
     5
 74
     0
 42
0.000000001
 43
0.00000001
 40
0.0
 40
0.0
 40
0.0
 40
0.0
 40
0.6918769359079288
 40
1.0
 40
1.0
 40
1.0
 40
1.0
 10
371.7453450725455
 20
-1471.679208730923
 30
0.0
 10
372.159470234816
 20
-1471.914978126704
 30
0.0
 10
372.7580234467785
 20
-1472.255745947605
 30
0.0
 10
373.4221006287826
 20
-1472.426454946122
 30
0.0
 10
373.6267181248953
 20
-1472.479054325813
 30
0.0
  0
SPLINE
  5
72
330
1F
100
AcDbEntity
  8
0
  6
Continuous
 62
     7
370
    15
100
AcDbSpline
210
0.0
220
0.0
230
1.0
 70
     8
 71
     3
 72
    11
 73
     7
 74
     0
 42
0.000000001
 43
0.00000001
 40
0.0
 40
0.0
 40
0.0
 40
0.0
 40
0.2354439530497907
 40
0.5602278702407518
 40
0.8575089842436217
 40
1.0
 40
1.0
 40
1.0
 40
1.0
 10
428.7331634661186
 20
352.6931750298601
 30
0.0
 10
428.3301244424514
 20
352.57036071251
 30
0.0
 10
427.3711119431783
 20
352.2781297906585
 30
0.0
 10
426.0560784110759
 20
351.4724689584354
 30
0.0
 10
424.983578624331
 20
350.6115618106041
 30
0.0
 10
424.5011783583682
 20
349.9910008724634
 30
0.0
 10
424.3448753567756
 20
349.7899322907348
 30
0.0
  0
SPLINE
  5
73
330
1F
100
AcDbEntity
  8
0
  6
Continuous
 62
     7
370
    15
100
AcDbSpline
210
0.0
220
0.0
230
1.0
 70
     8
 71
     3
 72
    12
 73
     8
 74
     0
 42
0.000000001
 43
0.00000001
 40
0.0
 40
0.0
 40
0.0
 40
0.0
 40
0.056676209244196
 40
0.3412508632169034
 40
0.6362465676973924
 40
0.938202165682173
 40
1.0
 40
1.0
 40
1.0
 40
1.0
 10
438.2107714072229
 20
349.7813598042606
 30
0.0
 10
438.1509683910332
 20
349.863775320049
 30
0.0
 10
437.7908908352151
 20
350.3600040954084
 30
0.0
 10
436.9267217375006
 20
351.1308220705424
 30
0.0
 10
435.6150114930609
 20
352.0096186449501
 30
0.0
 10
434.5360072800736
 20
352.538271728082
 30
0.0
 10
433.8976052588668
 20
352.6786936399623
 30
0.0
 10
433.7891475541932
 20
352.7025498273529
 30
0.0
  0
SPLINE
  5
76
330
1F
100
AcDbEntity
  8
0
  6
Continuous
 62
     7
370
    15
100
AcDbSpline
210
0.0
220
0.0
230
1.0
 70
     8
 71
     3
 72
    11
 73
     7
 74
     0
 42
0.000000001
 43
0.00000001
 40
0.0
 40
0.0
 40
0.0
 40
0.0
 40
0.2354439530499048
 40
0.5602278702407906
 40
0.857508984243627
 40
1.0
 40
1.0
 40
1.0
 40
1.0
 10
364.7331634661187
 20
352.6931750298602
 30
0.0
 10
364.3301244424513
 20
352.5703607125101
 30
0.0
 10
363.3711119431781
 20
352.2781297906584
 30
0.0
 10
362.0560784110759
 20
351.4724689584352
 30
0.0
 10
360.983578624331
 20
350.611561810604
 30
0.0
 10
360.5011783583684
 20
349.9910008724635
 30
0.0
 10
360.3448753567757
 20
349.789932290735
 30
0.0
  0
SPLINE
  5
77
330
1F
100
AcDbEntity
  8
0
  6
Continuous
 62
     7
370
    15
100
AcDbSpline
210
0.0
220
0.0
230
1.0
 70
     8
 71
     3
 72
    12
 73
     8
 74
     0
 42
0.000000001
 43
0.00000001
 40
0.0
 40
0.0
 40
0.0
 40
0.0
 40
0.0566762092443927
 40
0.3412508632170078
 40
0.6362465676974883
 40
0.9382021656822591
 40
1.0
 40
1.0
 40
1.0
 40
1.0
 10
374.2107714072229
 20
349.7813598042606
 30
0.0
 10
374.1509683910331
 20
349.8637753200492
 30
0.0
 10
373.7908908352147
 20
350.3600040954088
 30
0.0
 10
372.9267217374999
 20
351.1308220705426
 30
0.0
 10
371.6150114930604
 20
352.0096186449503
 30
0.0
 10
370.5360072800735
 20
352.5382717280825
 30
0.0
 10
369.8976052588667
 20
352.6786936399625
 30
0.0
 10
369.7891475541932
 20
352.702549827353
 30
0.0
  0
SPLINE
  5
7A
330
1F
100
AcDbEntity
  8
0
  6
Continuous
 62
     7
370
    15
100
AcDbSpline
210
0.0
220
0.0
230
1.0
 70
     8
 71
     3
 72
     9
 73
     5
 74
     0
 42
0.000000001
 43
0.00000001
 40
0.0
 40
0.0
 40
0.0
 40
0.0
 40
0.5919742224297996
 40
1.0
 40
1.0
 40
1.0
 40
1.0
 10
373.7331634661185
 20
352.6931750298601
 30
0.0
 10
373.3261359242433
 20
352.5782541809034
 30
0.0
 10
372.638559461531
 20
352.3841226721277
 30
0.0
 10
372.0354659310177
 20
352.0044157169253
 30
0.0
 10
371.7893882242824
 20
351.84948549128
 30
0.0
  0
SPLINE
  5
7B
330
1F
100
AcDbEntity
  8
0
  6
Continuous
 62
     7
370
    15
100
AcDbSpline
210
0.0
220
0.0
230
1.0
 70
     8
 71
     3
 72
    12
 73
     8
 74
     0
 42
0.000000001
 43
0.00000001
 40
0.0
 40
0.0
 40
0.0
 40
0.0
 40
0.0566762092442097
 40
0.3412508632168992
 40
0.6362465676974304
 40
0.9382021656821938
 40
1.0
 40
1.0
 40
1.0
 40
1.0
 10
383.2107714072229
 20
349.7813598042606
 30
0.0
 10
383.1509683910332
 20
349.863775320049
 30
0.0
 10
382.790890835215
 20
350.3600040954083
 30
0.0
 10
381.9267217375005
 20
351.1308220705424
 30
0.0
 10
380.6150114930607
 20
352.0096186449502
 30
0.0
 10
379.5360072800734
 20
352.5382717280817
 30
0.0
 10
378.8976052588667
 20
352.6786936399624
 30
0.0
 10
378.7891475541931
 20
352.7025498273529
 30
0.0
  0
SPLINE
  5
7D
330
1F
100
AcDbEntity
  8
0
  6
Continuous
 62
     7
370
    15
100
AcDbSpline
210
0.0
220
0.0
230
1.0
 70
     8
 71
     3
 72
    11
 73
     7
 74
     0
 42
0.000000001
 43
0.00000001
 40
0.0
 40
0.0
 40
0.0
 40
0.0
 40
0.1292426929373307
 40
0.464693145513591
 40
0.7663150317279974
 40
1.0
 40
1.0
 40
1.0
 40
1.0
 10
739.9007109646874
 20
-1472.474655615375
 30
0.0
 10
740.1203359733075
 20
-1472.417500821693
 30
0.0
 10
740.9099994642917
 20
-1472.212000299738
 30
0.0
 10
742.0949145404746
 20
-1471.545720990173
 30
0.0
 10
743.3305827461672
 20
-1470.636079884122
 30
0.0
 10
743.938708272488
 20
-1469.917870224336
 30
0.0
 10
744.2041817913356
 20
-1469.604340143125
 30
0.0
  0
SPLINE
  5
7E
330
1F
100
AcDbEntity
  8
0
  6
Continuous
 62
     7
370
    15
100
AcDbSpline
210
0.0
220
0.0
230
1.0
 70
     8
 71
     3
 72
    12
 73
     8
 74
     0
 42
0.000000001
 43
0.00000001
 40
0.0
 40
0.0
 40
0.0
 40
0.0
 40
0.0091409485860655
 40
0.2876848218689526
 40
0.5787659393321222
 40
0.8795849364772611
 40
1.0
 40
1.0
 40
1.0
 40
1.0
 10
730.3163312084157
 20
-1469.625515107516
 30
0.0
 10
730.3255558378193
 20
-1469.638581403043
 30
0.0
 10
730.615874270509
 20
-1470.049805125162
 30
0.0
 10
731.3692789547727
 20
-1470.747520010715
 30
0.0
 10
732.5923971733881
 20
-1471.648578948914
 30
0.0
 10
733.7091169501389
 20
-1472.237979258922
 30
0.0
 10
734.4227244344927
 20
-1472.42546046182
 30
0.0
 10
734.6267181248953
 20
-1472.479054325813
 30
0.0
  0
SPLINE
  5
81
330
1F
100
AcDbEntity
  8
0
  6
Continuous
 62
     7
370
    15
100
AcDbSpline
210
0.0
220
0.0
230
1.0
 70
     8
 71
     3
 72
    11
 73
     7
 74
     0
 42
0.000000001
 43
0.00000001
 40
0.0
 40
0.0
 40
0.0
 40
0.0
 40
0.1292426929374463
 40
0.464693145513694
 40
0.7663150317281578
 40
1.0
 40
1.0
 40
1.0
 40
1.0
 10
869.9007109646884
 20
-1472.474655615375
 30
0.0
 10
870.1203359733087
 20
-1472.417500821693
 30
0.0
 10
870.9099994642929
 20
-1472.212000299737
 30
0.0
 10
872.0949145404766
 20
-1471.545720990174
 30
0.0
 10
873.3305827461683
 20
-1470.636079884121
 30
0.0
 10
873.9387082724894
 20
-1469.917870224336
 30
0.0
 10
874.2041817913366
 20
-1469.604340143125
 30
0.0
  0
SPLINE
  5
82
330
1F
100
AcDbEntity
  8
0
  6
Continuous
 62
     7
370
    15
100
AcDbSpline
210
0.0
220
0.0
230
1.0
 70
     8
 71
     3
 72
    12
 73
     8
 74
     0
 42
0.000000001
 43
0.00000001
 40
0.0
 40
0.0
 40
0.0
 40
0.0
 40
0.0091409485861244
 40
0.2876848218690386
 40
0.5787659393322221
 40
0.8795849364773961
 40
1.0
 40
1.0
 40
1.0
 40
1.0
 10
860.3163312084168
 20
-1469.625515107516
 30
0.0
 10
860.3255558378205
 20
-1469.638581403043
 30
0.0
 10
860.6158742705067
 20
-1470.049805125155
 30
0.0
 10
861.3692789547749
 20
-1470.747520010718
 30
0.0
 10
862.59239717339
 20
-1471.648578948915
 30
0.0
 10
863.7091169501399
 20
-1472.237979258921
 30
0.0
 10
864.4227244344944
 20
-1472.425460461821
 30
0.0
 10
864.6267181248967
 20
-1472.479054325813
 30
0.0
  0
SPLINE
  5
85
330
1F
100
AcDbEntity
  8
0
  6
Continuous
 62
     7
370
    15
100
AcDbSpline
210
0.0
220
0.0
230
1.0
 70
     8
 71
     3
 72
    11
 73
     7
 74
     0
 42
0.000000001
 43
0.00000001
 40
0.0
 40
0.0
 40
0.0
 40
0.0
 40
0.2354439530498716
 40
0.5602278702408736
 40
0.8575089842436743
 40
1.0
 40
1.0
 40
1.0
 40
1.0
 10
800.7331634661184
 20
352.69317502986
 30
0.0
 10
800.3301244424512
 20
352.5703607125099
 30
0.0
 10
799.3711119431778
 20
352.2781297906582
 30
0.0
 10
798.0560784110756
 20
351.4724689584352
 30
0.0
 10
796.9835786243307
 20
350.6115618106037
 30
0.0
 10
796.5011783583682
 20
349.9910008724632
 30
0.0
 10
796.3448753567754
 20
349.7899322907348
 30
0.0
  0
SPLINE
  5
86
330
1F
100
AcDbEntity
  8
0
  6
Continuous
 62
     7
370
    15
100
AcDbSpline
210
0.0
220
0.0
230
1.0
 70
     8
 71
     3
 72
    12
 73
     8
 74
     0
 42
0.000000001
 43
0.00000001
 40
0.0
 40
0.0
 40
0.0
 40
0.0
 40
0.056676209244394
 40
0.341250863217162
 40
0.6362465676975262
 40
0.9382021656823226
 40
1.0
 40
1.0
 40
1.0
 40
1.0
 10
810.2107714072229
 20
349.7813598042606
 30
0.0
 10
810.1509683910331
 20
349.8637753200493
 30
0.0
 10
809.7908908352143
 20
350.360004095409
 30
0.0
 10
808.9267217374993
 20
351.1308220705426
 30
0.0
 10
807.6150114930599
 20
352.0096186449505
 30
0.0
 10
806.5360072800729
 20
352.5382717280822
 30
0.0
 10
805.8976052588663
 20
352.6786936399623
 30
0.0
 10
805.789147554193
 20
352.7025498273529
 30
0.0
  0
SPLINE
  5
89
330
1F
100
AcDbEntity
  8
0
  6
Continuous
 62
     7
370
    15
100
AcDbSpline
210
0.0
220
0.0
230
1.0
 70
     8
 71
     3
 72
    11
 73
     7
 74
     0
 42
0.000000001
 43
0.00000001
 40
0.0
 40
0.0
 40
0.0
 40
0.0
 40
0.2354439530491767
 40
0.5602278702400985
 40
0.8575089842429666
 40
1.0
 40
1.0
 40
1.0
 40
1.0
 10
864.7331634661186
 20
352.69317502986
 30
0.0
 10
864.3301244424524
 20
352.5703607125104
 30
0.0
 10
863.3711119431804
 20
352.2781297906595
 30
0.0
 10
862.0560784110786
 20
351.4724689584373
 30
0.0
 10
860.9835786243327
 20
350.6115618106057
 30
0.0
 10
860.501178358369
 20
349.9910008724643
 30
0.0
 10
860.3448753567756
 20
349.789932290735
 30
0.0
  0
SPLINE
  5
8A
330
1F
100
AcDbEntity
  8
0
  6
Continuous
 62
     7
370
    15
100
AcDbSpline
210
0.0
220
0.0
230
1.0
 70
     8
 71
     3
 72
    12
 73
     8
 74
     0
 42
0.000000001
 43
0.00000001
 40
0.0
 40
0.0
 40
0.0
 40
0.0
 40
0.0566762092436975
 40
0.3412508632163239
 40
0.6362465676968372
 40
0.9382021656815533
 40
1.0
 40
1.0
 40
1.0
 40
1.0
 10
874.2107714072229
 20
349.7813598042606
 30
0.0
 10
874.1509683910336
 20
349.8637753200483
 30
0.0
 10
873.7908908352166
 20
350.360004095407
 30
0.0
 10
872.9267217375025
 20
351.1308220705401
 30
0.0
 10
871.6150114930637
 20
352.0096186449487
 30
0.0
 10
870.5360072800755
 20
352.538271728081
 30
0.0
 10
869.8976052588679
 20
352.6786936399619
 30
0.0
 10
869.7891475541933
 20
352.7025498273527
 30
0.0
  0
SPLINE
  5
8D
330
1F
100
AcDbEntity
  8
0
  6
Continuous
 62
     7
370
    15
100
AcDbSpline
210
0.0
220
0.0
230
1.0
 70
     8
 71
     3
 72
    11
 73
     7
 74
     0
 42
0.000000001
 43
0.00000001
 40
0.0
 40
0.0
 40
0.0
 40
0.0
 40
0.1292426929369554
 40
0.4646931455130567
 40
0.7663150317275148
 40
1.0
 40
1.0
 40
1.0
 40
1.0
 10
805.9007109646869
 20
-1472.474655615375
 30
0.0
 10
806.1203359733065
 20
-1472.417500821693
 30
0.0
 10
806.9099994642899
 20
-1472.212000299739
 30
0.0
 10
808.0949145404725
 20
-1471.545720990175
 30
0.0
 10
809.3305827461652
 20
-1470.636079884123
 30
0.0
 10
809.9387082724869
 20
-1469.917870224337
 30
0.0
 10
810.2041817913353
 20
-1469.604340143126
 30
0.0
  0
SPLINE
  5
8E
330
1F
100
AcDbEntity
  8
0
  6
Continuous
 62
     7
370
    15
100
AcDbSpline
210
0.0
220
0.0
230
1.0
 70
     8
 71
     3
 72
    12
 73
     8
 74
     0
 42
0.000000001
 43
0.00000001
 40
0.0
 40
0.0
 40
0.0
 40
0.0
 40
0.0091409485858068
 40
0.2876848218686039
 40
0.5787659393317554
 40
0.8795849364768961
 40
1.0
 40
1.0
 40
1.0
 40
1.0
 10
796.3163312084151
 20
-1469.625515107516
 30
0.0
 10
796.3255558378183
 20
-1469.638581403043
 30
0.0
 10
796.6158742705048
 20
-1470.049805125157
 30
0.0
 10
797.3692789547719
 20
-1470.747520010715
 30
0.0
 10
798.5923971733855
 20
-1471.648578948914
 30
0.0
 10
799.7091169501374
 20
-1472.23797925892
 30
0.0
 10
800.4227244344921
 20
-1472.425460461821
 30
0.0
 10
800.6267181248952
 20
-1472.479054325813
 30
0.0
  0
SPLINE
  5
96
330
1F
100
AcDbEntity
  8
0
  6
Continuous
 62
     7
370
    15
100
AcDbSpline
210
0.0
220
0.0
230
1.0
 70
     8
 71
     3
 72
    11
 73
     7
 74
     0
 42
0.000000001
 43
0.00000001
 40
0.0
 40
0.0
 40
0.0
 40
0.0
 40
0.2354439530493392
 40
0.5602278702402502
 40
0.8575089842430955
 40
1.0
 40
1.0
 40
1.0
 40
1.0
 10
734.7331634661186
 20
352.69317502986
 30
0.0
 10
734.3301244424521
 20
352.5703607125103
 30
0.0
 10
733.3711119431797
 20
352.2781297906593
 30
0.0
 10
732.0560784110781
 20
351.4724689584371
 30
0.0
 10
730.9835786243322
 20
350.6115618106055
 30
0.0
 10
730.501178358369
 20
349.9910008724642
 30
0.0
 10
730.3448753567756
 20
349.789932290735
 30
0.0
  0
SPLINE
  5
97
330
1F
100
AcDbEntity
  8
0
  6
Continuous
 62
     7
370
    15
100
AcDbSpline
210
0.0
220
0.0
230
1.0
 70
     8
 71
     3
 72
    12
 73
     8
 74
     0
 42
0.000000001
 43
0.00000001
 40
0.0
 40
0.0
 40
0.0
 40
0.0
 40
0.0566762092439816
 40
0.3412508632166374
 40
0.6362465676970925
 40
0.9382021656817682
 40
1.0
 40
1.0
 40
1.0
 40
1.0
 10
744.2107714072229
 20
349.7813598042606
 30
0.0
 10
744.1509683910334
 20
349.8637753200488
 30
0.0
 10
743.7908908352155
 20
350.3600040954078
 30
0.0
 10
742.9267217375012
 20
351.1308220705411
 30
0.0
 10
741.6150114930624
 20
352.0096186449494
 30
0.0
 10
740.536007280075
 20
352.5382717280813
 30
0.0
 10
739.8976052588674
 20
352.6786936399621
 30
0.0
 10
739.7891475541932
 20
352.7025498273528
 30
0.0
  0
SPLINE
  5
9A
330
1F
100
AcDbEntity
  8
0
  6
Continuous
 62
     7
370
    15
100
AcDbSpline
210
0.0
220
0.0
230
1.0
 70
     8
 71
     3
 72
    11
 73
     7
 74
     0
 42
0.000000001
 43
0.00000001
 40
0.0
 40
0.0
 40
0.0
 40
0.0
 40
0.1292426929384339
 40
0.4646931455147877
 40
0.7663150317292113
 40
1.0
 40
1.0
 40
1.0
 40
1.0
 10
369.9007109646874
 20
-1472.474655615375
 30
0.0
 10
370.1203359733092
 20
-1472.417500821692
 30
0.0
 10
370.9099994642954
 20
-1472.212000299736
 30
0.0
 10
372.0949145404801
 20
-1471.54572099017
 30
0.0
 10
373.3305827461701
 20
-1470.636079884119
 30
0.0
 10
373.9387082724895
 20
-1469.917870224334
 30
0.0
 10
374.2041817913354
 20
-1469.604340143125
 30
0.0
  0
SPLINE
  5
9B
330
1F
100
AcDbEntity
  8
0
  6
Continuous
 62
     7
370
    15
100
AcDbSpline
210
0.0
220
0.0
230
1.0
 70
     8
 71
     3
 72
    12
 73
     8
 74
     0
 42
0.000000001
 43
0.00000001
 40
0.0
 40
0.0
 40
0.0
 40
0.0
 40
0.0091409485868644
 40
0.2876848218698574
 40
0.5787659393331506
 40
0.8795849364785504
 40
1.0
 40
1.0
 40
1.0
 40
1.0
 10
360.3163312084159
 20
-1469.625515107516
 30
0.0
 10
360.3255558378203
 20
-1469.638581403044
 30
0.0
 10
360.6158742705089
 20
-1470.049805125158
 30
0.0
 10
361.3692789547769
 20
-1470.747520010721
 30
0.0
 10
362.5923971733928
 20
-1471.648578948917
 30
0.0
 10
363.7091169501426
 20
-1472.237979258924
 30
0.0
 10
364.4227244344951
 20
-1472.425460461821
 30
0.0
 10
364.6267181248954
 20
-1472.479054325813
 30
0.0
  0
SPLINE
  5
9E
330
1F
100
AcDbEntity
  8
0
  6
Continuous
 62
     7
370
    15
100
AcDbSpline
210
0.0
220
0.0
230
1.0
 70
     8
 71
     3
 72
    11
 73
     7
 74
     0
 42
0.000000001
 43
0.00000001
 40
0.0
 40
0.0
 40
0.0
 40
0.0
 40
0.2354439530499597
 40
0.5602278702408786
 40
0.8575089842436877
 40
1.0
 40
1.0
 40
1.0
 40
1.0
 10
855.7331634661188
 20
352.6931750298602
 30
0.0
 10
855.330124442451
 20
352.57036071251
 30
0.0
 10
854.371111943178
 20
352.2781297906584
 30
0.0
 10
853.0560784110754
 20
351.472468958435
 30
0.0
 10
851.9835786243309
 20
350.6115618106039
 30
0.0
 10
851.5011783583683
 20
349.9910008724634
 30
0.0
 10
851.3448753567756
 20
349.789932290735
 30
0.0
  0
SPLINE
  5
9F
330
1F
100
AcDbEntity
  8
0
  6
Continuous
 62
     7
370
    15
100
AcDbSpline
210
0.0
220
0.0
230
1.0
 70
     8
 71
     3
 72
    10
 73
     6
 74
     0
 42
0.000000001
 43
0.00000001
 40
0.0
 40
0.0
 40
0.0
 40
0.0
 40
0.1025491873219491
 40
0.8475326644229795
 40
1.0
 40
1.0
 40
1.0
 40
1.0
 10
862.7893882242822
 20
351.84948549128
 30
0.0
 10
862.727770733014
 20
351.8915730685566
 30
0.0
 10
862.2185240201596
 20
352.239411968501
 30
0.0
 10
861.5347546978924
 20
352.5364950791097
 30
0.0
 10
860.8974233610032
 20
352.6784356380072
 30
0.0
 10
860.7891475541933
 20
352.7025498273529
 30
0.0
  0
SPLINE
  5
A1
330
1F
100
AcDbEntity
  8
0
  6
Continuous
 62
     7
370
    15
100
AcDbSpline
210
0.0
220
0.0
230
1.0
 70
     8
 71
     3
 72
     9
 73
     5
 74
     0
 42
0.000000001
 43
0.00000001
 40
0.0
 40
0.0
 40
0.0
 40
0.0
 40
0.336866478329211
 40
1.0
 40
1.0
 40
1.0
 40
1.0
 10
860.9007109646874
 20
-1472.474655615375
 30
0.0
 10
861.1212092613122
 20
-1472.419251376569
 30
0.0
 10
861.7757662172861
 20
-1472.254781943214
 30
0.0
 10
862.3587493888876
 20
-1471.908704370492
 30
0.0
 10
862.7453450725467
 20
-1471.679208730922
 30
0.0
  0
SPLINE
  5
A2
330
1F
100
AcDbEntity
  8
0
  6
Continuous
 62
     7
370
    15
100
AcDbSpline
210
0.0
220
0.0
230
1.0
 70
     8
 71
     3
 72
    12
 73
     8
 74
     0
 42
0.000000001
 43
0.00000001
 40
0.0
 40
0.0
 40
0.0
 40
0.0
 40
0.0091409485866283
 40
0.2876848218696385
 40
0.5787659393328822
 40
0.8795849364779543
 40
1.0
 40
1.0
 40
1.0
 40
1.0
 10
851.3163312084159
 20
-1469.625515107516
 30
0.0
 10
851.32555583782
 20
-1469.638581403043
 30
0.0
 10
851.6158742705069
 20
-1470.049805125158
 30
0.0
 10
852.3692789547766
 20
-1470.747520010719
 30
0.0
 10
853.5923971733904
 20
-1471.648578948916
 30
0.0
 10
854.7091169501417
 20
-1472.237979258923
 30
0.0
 10
855.4227244344942
 20
-1472.425460461821
 30
0.0
 10
855.6267181248954
 20
-1472.479054325813
 30
0.0
  0
SPLINE
  5
A4
330
1F
100
AcDbEntity
  8
0
  6
Continuous
 62
     7
370
    15
100
AcDbSpline
210
0.0
220
0.0
230
1.0
 70
     8
 71
     3
 72
    11
 73
     7
 74
     0
 42
0.000000001
 43
0.00000001
 40
0.0
 40
0.0
 40
0.0
 40
0.0
 40
0.1292426929379717
 40
0.4646931455142538
 40
0.7663150317286044
 40
0.9999999999999999
 40
0.9999999999999999
 40
0.9999999999999999
 40
0.9999999999999999
 10
433.9007109646873
 20
-1472.474655615375
 30
0.0
 10
434.1203359733084
 20
-1472.417500821692
 30
0.0
 10
434.9099994642937
 20
-1472.212000299736
 30
0.0
 10
436.0949145404776
 20
-1471.545720990172
 30
0.0
 10
437.3305827461685
 20
-1470.63607988412
 30
0.0
 10
437.9387082724886
 20
-1469.917870224335
 30
0.0
 10
438.2041817913353
 20
-1469.604340143125
 30
0.0
  0
SPLINE
  5
A5
330
1F
100
AcDbEntity
  8
0
  6
Continuous
 62
     7
370
    15
100
AcDbSpline
210
0.0
220
0.0
230
1.0
 70
     8
 71
     3
 72
    12
 73
     8
 74
     0
 42
0.000000001
 43
0.00000001
 40
0.0
 40
0.0
 40
0.0
 40
0.0
 40
0.0091409485866344
 40
0.2876848218695625
 40
0.5787659393327472
 40
0.8795849364780081
 40
1.0
 40
1.0
 40
1.0
 40
1.0
 10
424.3163312084158
 20
-1469.625515107516
 30
0.0
 10
424.32555583782
 20
-1469.638581403044
 30
0.0
 10
424.6158742705085
 20
-1470.049805125163
 30
0.0
 10
425.3692789547753
 20
-1470.747520010717
 30
0.0
 10
426.5923971733909
 20
-1471.648578948917
 30
0.0
 10
427.7091169501408
 20
-1472.237979258923
 30
0.0
 10
428.4227244344943
 20
-1472.425460461821
 30
0.0
 10
428.6267181248954
 20
-1472.479054325813
 30
0.0
  0
SPLINE
  5
A8
330
1F
100
AcDbEntity
  8
0
  6
Continuous
 62
     7
370
    15
100
AcDbSpline
210
0.0
220
0.0
230
1.0
 70
     8
 71
     3
 72
    11
 73
     7
 74
     0
 42
0.000000001
 43
0.00000001
 40
0.0
 40
0.0
 40
0.0
 40
0.0
 40
0.2354439530491473
 40
0.5602278702400774
 40
0.8575089842429127
 40
0.9999999999999999
 40
0.9999999999999999
 40
0.9999999999999999
 40
0.9999999999999999
 10
494.7331634661186
 20
352.6931750298598
 30
0.0
 10
494.3301244424524
 20
352.5703607125103
 30
0.0
 10
493.3711119431804
 20
352.2781297906594
 30
0.0
 10
492.0560784110788
 20
351.4724689584374
 30
0.0
 10
490.9835786243329
 20
350.6115618106058
 30
0.0
 10
490.5011783583692
 20
349.9910008724643
 30
0.0
 10
490.3448753567756
 20
349.7899322907348
 30
0.0
  0
SPLINE
  5
A9
330
1F
100
AcDbEntity
  8
0
  6
Continuous
 62
     7
370
    15
100
AcDbSpline
210
0.0
220
0.0
230
1.0
 70
     8
 71
     3
 72
    12
 73
     8
 74
     0
 42
0.000000001
 43
0.00000001
 40
0.0
 40
0.0
 40
0.0
 40
0.0
 40
0.056676209243743
 40
0.3412508632163556
 40
0.6362465676967892
 40
0.938202165681533
 40
1.0
 40
1.0
 40
1.0
 40
1.0
 10
504.2107714072229
 20
349.7813598042606
 30
0.0
 10
504.1509683910337
 20
349.8637753200483
 30
0.0
 10
503.7908908352167
 20
350.3600040954074
 30
0.0
 10
502.9267217375023
 20
351.13082207054
 30
0.0
 10
501.6150114930639
 20
352.0096186449487
 30
0.0
 10
500.5360072800754
 20
352.5382717280808
 30
0.0
 10
499.8976052588679
 20
352.6786936399619
 30
0.0
 10
499.7891475541931
 20
352.7025498273527
 30
0.0
  0
SPLINE
  5
AC
330
1F
100
AcDbEntity
  8
0
  6
Continuous
 62
     7
370
    15
100
AcDbSpline
210
0.0
220
0.0
230
1.0
 70
     8
 71
     3
 72
    11
 73
     7
 74
     0
 42
0.000000001
 43
0.00000001
 40
0.0
 40
0.0
 40
0.0
 40
0.0
 40
0.1292426929384255
 40
0.464693145514778
 40
0.7663150317292341
 40
1.0
 40
1.0
 40
1.0
 40
1.0
 10
499.9007109646873
 20
-1472.474655615375
 30
0.0
 10
500.1203359733092
 20
-1472.417500821692
 30
0.0
 10
500.9099994642955
 20
-1472.212000299736
 30
0.0
 10
502.0949145404799
 20
-1471.54572099017
 30
0.0
 10
503.33058274617
 20
-1470.636079884118
 30
0.0
 10
503.9387082724892
 20
-1469.917870224334
 30
0.0
 10
504.2041817913353
 20
-1469.604340143125
 30
0.0
  0
SPLINE
  5
AD
330
1F
100
AcDbEntity
  8
0
  6
Continuous
 62
     7
370
    15
100
AcDbSpline
210
0.0
220
0.0
230
1.0
 70
     8
 71
     3
 72
    12
 73
     8
 74
     0
 42
0.000000001
 43
0.00000001
 40
0.0
 40
0.0
 40
0.0
 40
0.0
 40
0.0091409485868985
 40
0.2876848218698819
 40
0.5787659393331651
 40
0.8795849364785545
 40
0.9999999999999999
 40
0.9999999999999999
 40
0.9999999999999999
 40
0.9999999999999999
 10
490.3163312084158
 20
-1469.625515107516
 30
0.0
 10
490.3255558378202
 20
-1469.638581403044
 30
0.0
 10
490.6158742705102
 20
-1470.049805125166
 30
0.0
 10
491.3692789547761
 20
-1470.747520010717
 30
0.0
 10
492.5923971733931
 20
-1471.648578948918
 30
0.0
 10
493.7091169501422
 20
-1472.237979258924
 30
0.0
 10
494.4227244344951
 20
-1472.425460461821
 30
0.0
 10
494.6267181248953
 20
-1472.479054325813
 30
0.0
  0
SPLINE
  5
EB
330
1F
100
AcDbEntity
  8
0
  6
Continuous
 62
     7
370
    15
100
AcDbSpline
210
0.0
220
0.0
230
1.0
 70
     8
 71
     3
 72
     8
 73
     4
 74
     0
 42
0.000000001
 43
0.00000001
 40
0.0
 40
0.0
 40
0.0
 40
0.0
 40
1.0
 40
1.0
 40
1.0
 40
1.0
 10
377.1407737891969
 20
-1472.435072848132
 30
0.0
 10
377.7887191299736
 20
-1472.598002407925
 30
0.0
 10
378.4366644707503
 20
-1472.598002407925
 30
0.0
 10
379.0846098115269
 20
-1472.435072848132
 30
0.0
  0
SPLINE
  5
EC
330
1F
100
AcDbEntity
  8
0
  6
Continuous
 62
     7
370
    15
100
AcDbSpline
210
0.0
220
0.0
230
1.0
 70
     8
 71
     3
 72
     8
 73
     4
 74
     0
 42
0.000000001
 43
0.00000001
 40
0.0
 40
0.0
 40
0.0
 40
0.0
 40
1.0
 40
1.0
 40
1.0
 40
1.0
 10
374.3205792460381
 20
-1472.435072848132
 30
0.0
 10
375.2606440937578
 20
-1472.598002407925
 30
0.0
 10
376.2007089414773
 20
-1472.598002407925
 30
0.0
 10
377.1407737891969
 20
-1472.435072848132
 30
0.0
  0
SPLINE
  5
EF
330
1F
100
AcDbEntity
  8
0
  6
Continuous
 62
     7
370
    15
100
AcDbSpline
210
0.0
220
0.0
230
1.0
 70
     8
 71
     3
 72
     8
 73
     4
 74
     0
 42
0.000000001
 43
0.00000001
 40
0.0
 40
0.0
 40
0.0
 40
0.0
 40
1.0
 40
1.0
 40
1.0
 40
1.0
 10
431.1035041378803
 20
352.6138762885927
 30
0.0
 10
430.29828495308
 20
352.7768058483857
 30
0.0
 10
429.4930657682796
 20
352.7768058483857
 30
0.0
 10
428.6878465834792
 20
352.6138762885927
 30
0.0
  0
SPLINE
  5
F0
330
1F
100
AcDbEntity
  8
0
  6
Continuous
 62
     7
370
    15
100
AcDbSpline
210
0.0
220
0.0
230
1.0
 70
     8
 71
     3
 72
     8
 73
     4
 74
     0
 42
0.000000001
 43
0.00000001
 40
0.0
 40
0.0
 40
0.0
 40
0.0
 40
1.0
 40
1.0
 40
1.0
 40
1.0
 10
433.6800728227691
 20
352.6138762885927
 30
0.0
 10
432.8212165944728
 20
352.7768058483857
 30
0.0
 10
431.9623603661767
 20
352.7768058483857
 30
0.0
 10
431.1035041378803
 20
352.6138762885927
 30
0.0
  0
SPLINE
  5
F4
330
1F
100
AcDbEntity
  8
0
  6
Continuous
 62
     7
370
    15
100
AcDbSpline
210
0.0
220
0.0
230
1.0
 70
     8
 71
     3
 72
     8
 73
     4
 74
     0
 42
0.000000001
 43
0.00000001
 40
0.0
 40
0.0
 40
0.0
 40
0.0
 40
1.0
 40
1.0
 40
1.0
 40
1.0
 10
367.1035041378805
 20
352.6138762885928
 30
0.0
 10
366.2982849530801
 20
352.7768058483857
 30
0.0
 10
365.4930657682797
 20
352.7768058483857
 30
0.0
 10
364.6878465834793
 20
352.6138762885928
 30
0.0
  0
SPLINE
  5
F5
330
1F
100
AcDbEntity
  8
0
  6
Continuous
 62
     7
370
    15
100
AcDbSpline
210
0.0
220
0.0
230
1.0
 70
     8
 71
     3
 72
     8
 73
     4
 74
     0
 42
0.000000001
 43
0.00000001
 40
0.0
 40
0.0
 40
0.0
 40
0.0
 40
1.0
 40
1.0
 40
1.0
 40
1.0
 10
369.6800728227693
 20
352.6138762885928
 30
0.0
 10
368.821216594473
 20
352.7768058483857
 30
0.0
 10
367.9623603661768
 20
352.7768058483857
 30
0.0
 10
367.1035041378805
 20
352.6138762885928
 30
0.0
  0
SPLINE
  5
F9
330
1F
100
AcDbEntity
  8
0
  6
Continuous
 62
     7
370
    15
100
AcDbSpline
210
0.0
220
0.0
230
1.0
 70
     8
 71
     3
 72
     8
 73
     4
 74
     0
 42
0.000000001
 43
0.00000001
 40
0.0
 40
0.0
 40
0.0
 40
0.0
 40
1.0
 40
1.0
 40
1.0
 40
1.0
 10
376.1035041378803
 20
352.6138762885927
 30
0.0
 10
375.29828495308
 20
352.7768058483857
 30
0.0
 10
374.4930657682796
 20
352.7768058483857
 30
0.0
 10
373.6878465834792
 20
352.6138762885927
 30
0.0
  0
SPLINE
  5
FA
330
1F
100
AcDbEntity
  8
0
  6
Continuous
 62
     7
370
    15
100
AcDbSpline
210
0.0
220
0.0
230
1.0
 70
     8
 71
     3
 72
     8
 73
     4
 74
     0
 42
0.000000001
 43
0.00000001
 40
0.0
 40
0.0
 40
0.0
 40
0.0
 40
1.0
 40
1.0
 40
1.0
 40
1.0
 10
378.6800728227691
 20
352.6138762885927
 30
0.0
 10
377.8212165944729
 20
352.7768058483857
 30
0.0
 10
376.9623603661767
 20
352.7768058483857
 30
0.0
 10
376.1035041378803
 20
352.6138762885927
 30
0.0
  0
SPLINE
  5
101
330
1F
100
AcDbEntity
  8
0
  6
Continuous
 62
     7
370
    15
100
AcDbSpline
210
0.0
220
0.0
230
1.0
 70
     8
 71
     3
 72
     8
 73
     4
 74
     0
 42
0.000000001
 43
0.00000001
 40
0.0
 40
0.0
 40
0.0
 40
0.0
 40
1.0
 40
1.0
 40
1.0
 40
1.0
 10
738.140773789197
 20
-1472.435072848132
 30
0.0
 10
738.7887191299736
 20
-1472.598002407925
 30
0.0
 10
739.4366644707503
 20
-1472.598002407925
 30
0.0
 10
740.0846098115269
 20
-1472.435072848132
 30
0.0
  0
SPLINE
  5
102
330
1F
100
AcDbEntity
  8
0
  6
Continuous
 62
     7
370
    15
100
AcDbSpline
210
0.0
220
0.0
230
1.0
 70
     8
 71
     3
 72
     8
 73
     4
 74
     0
 42
0.000000001
 43
0.00000001
 40
0.0
 40
0.0
 40
0.0
 40
0.0
 40
1.0
 40
1.0
 40
1.0
 40
1.0
 10
735.3205792460382
 20
-1472.435072848132
 30
0.0
 10
736.2606440937578
 20
-1472.598002407925
 30
0.0
 10
737.2007089414775
 20
-1472.598002407925
 30
0.0
 10
738.140773789197
 20
-1472.435072848132
 30
0.0
  0
SPLINE
  5
109
330
1F
100
AcDbEntity
  8
0
  6
Continuous
 62
     7
370
    15
100
AcDbSpline
210
0.0
220
0.0
230
1.0
 70
     8
 71
     3
 72
     8
 73
     4
 74
     0
 42
0.000000001
 43
0.00000001
 40
0.0
 40
0.0
 40
0.0
 40
0.0
 40
1.0
 40
1.0
 40
1.0
 40
1.0
 10
868.1407737891982
 20
-1472.435072848132
 30
0.0
 10
868.7887191299748
 20
-1472.598002407925
 30
0.0
 10
869.4366644707515
 20
-1472.598002407925
 30
0.0
 10
870.084609811528
 20
-1472.435072848132
 30
0.0
  0
SPLINE
  5
10A
330
1F
100
AcDbEntity
  8
0
  6
Continuous
 62
     7
370
    15
100
AcDbSpline
210
0.0
220
0.0
230
1.0
 70
     8
 71
     3
 72
     8
 73
     4
 74
     0
 42
0.000000001
 43
0.00000001
 40
0.0
 40
0.0
 40
0.0
 40
0.0
 40
1.0
 40
1.0
 40
1.0
 40
1.0
 10
865.3205792460393
 20
-1472.435072848132
 30
0.0
 10
866.260644093759
 20
-1472.598002407925
 30
0.0
 10
867.2007089414786
 20
-1472.598002407925
 30
0.0
 10
868.1407737891982
 20
-1472.435072848132
 30
0.0
  0
SPLINE
  5
10E
330
1F
100
AcDbEntity
  8
0
  6
Continuous
 62
     7
370
    15
100
AcDbSpline
210
0.0
220
0.0
230
1.0
 70
     8
 71
     3
 72
     8
 73
     4
 74
     0
 42
0.000000001
 43
0.00000001
 40
0.0
 40
0.0
 40
0.0
 40
0.0
 40
1.0
 40
1.0
 40
1.0
 40
1.0
 10
803.1035041378803
 20
352.6138762885927
 30
0.0
 10
802.2982849530799
 20
352.7768058483857
 30
0.0
 10
801.4930657682795
 20
352.7768058483857
 30
0.0
 10
800.6878465834791
 20
352.6138762885927
 30
0.0
  0
SPLINE
  5
10F
330
1F
100
AcDbEntity
  8
0
  6
Continuous
 62
     7
370
    15
100
AcDbSpline
210
0.0
220
0.0
230
1.0
 70
     8
 71
     3
 72
     8
 73
     4
 74
     0
 42
0.000000001
 43
0.00000001
 40
0.0
 40
0.0
 40
0.0
 40
0.0
 40
1.0
 40
1.0
 40
1.0
 40
1.0
 10
805.6800728227691
 20
352.6138762885927
 30
0.0
 10
804.8212165944728
 20
352.7768058483857
 30
0.0
 10
803.9623603661767
 20
352.7768058483857
 30
0.0
 10
803.1035041378803
 20
352.6138762885927
 30
0.0
  0
SPLINE
  5
113
330
1F
100
AcDbEntity
  8
0
  6
Continuous
 62
     7
370
    15
100
AcDbSpline
210
0.0
220
0.0
230
1.0
 70
     8
 71
     3
 72
     8
 73
     4
 74
     0
 42
0.000000001
 43
0.00000001
 40
0.0
 40
0.0
 40
0.0
 40
0.0
 40
1.0
 40
1.0
 40
1.0
 40
1.0
 10
867.1035041378803
 20
352.6138762885927
 30
0.0
 10
866.29828495308
 20
352.7768058483857
 30
0.0
 10
865.4930657682795
 20
352.7768058483857
 30
0.0
 10
864.6878465834792
 20
352.6138762885927
 30
0.0
  0
SPLINE
  5
114
330
1F
100
AcDbEntity
  8
0
  6
Continuous
 62
     7
370
    15
100
AcDbSpline
210
0.0
220
0.0
230
1.0
 70
     8
 71
     3
 72
     8
 73
     4
 74
     0
 42
0.000000001
 43
0.00000001
 40
0.0
 40
0.0
 40
0.0
 40
0.0
 40
1.0
 40
1.0
 40
1.0
 40
1.0
 10
869.6800728227691
 20
352.6138762885927
 30
0.0
 10
868.8212165944728
 20
352.7768058483857
 30
0.0
 10
867.9623603661767
 20
352.7768058483857
 30
0.0
 10
867.1035041378803
 20
352.6138762885927
 30
0.0
  0
SPLINE
  5
11B
330
1F
100
AcDbEntity
  8
0
  6
Continuous
 62
     7
370
    15
100
AcDbSpline
210
0.0
220
0.0
230
1.0
 70
     8
 71
     3
 72
     8
 73
     4
 74
     0
 42
0.000000001
 43
0.00000001
 40
0.0
 40
0.0
 40
0.0
 40
0.0
 40
1.0
 40
1.0
 40
1.0
 40
1.0
 10
804.1407737891967
 20
-1472.435072848132
 30
0.0
 10
804.7887191299733
 20
-1472.598002407925
 30
0.0
 10
805.4366644707499
 20
-1472.598002407925
 30
0.0
 10
806.0846098115265
 20
-1472.435072848132
 30
0.0
  0
SPLINE
  5
11C
330
1F
100
AcDbEntity
  8
0
  6
Continuous
 62
     7
370
    15
100
AcDbSpline
210
0.0
220
0.0
230
1.0
 70
     8
 71
     3
 72
     8
 73
     4
 74
     0
 42
0.000000001
 43
0.00000001
 40
0.0
 40
0.0
 40
0.0
 40
0.0
 40
1.0
 40
1.0
 40
1.0
 40
1.0
 10
801.3205792460378
 20
-1472.435072848132
 30
0.0
 10
802.2606440937574
 20
-1472.598002407925
 30
0.0
 10
803.2007089414772
 20
-1472.598002407925
 30
0.0
 10
804.1407737891967
 20
-1472.435072848132
 30
0.0
  0
LWPOLYLINE
  5
133
330
1F
100
AcDbEntity
  8
0
  6
Continuous
 62
     7
370
    15
100
AcDbPolyline
 90
        3
 70
   128
 43
0.0
 10
296.7689997505
 20
-1456.6672763803
 10
296.5789682474
 20
-1455.8860498899
 10
296.5191846093
 20
-1455.1183149011
  0
LWPOLYLINE
  5
134
330
1F
100
AcDbEntity
  8
0
  6
Continuous
 62
     7
370
    15
100
AcDbPolyline
 90
        3
 70
   128
 43
0.0
 10
296.5191846093
 20
335.2971183416
 10
296.5789682474
 20
336.0648533303
 10
296.7689996552
 20
336.8460795352
  0
SPLINE
  5
136
330
1F
100
AcDbEntity
  8
0
  6
Continuous
 62
     7
370
    15
100
AcDbSpline
210
0.0
220
0.0
230
1.0
 70
     8
 71
     3
 72
     8
 73
     4
 74
     0
 42
0.000000001
 43
0.00000001
 40
0.0
 40
0.0
 40
0.0
 40
0.0
 40
1.0
 40
1.0
 40
1.0
 40
1.0
 10
737.1035041378803
 20
352.6138762885928
 30
0.0
 10
736.29828495308
 20
352.7768058483857
 30
0.0
 10
735.4930657682795
 20
352.7768058483857
 30
0.0
 10
734.6878465834792
 20
352.6138762885928
 30
0.0
  0
SPLINE
  5
137
330
1F
100
AcDbEntity
  8
0
  6
Continuous
 62
     7
370
    15
100
AcDbSpline
210
0.0
220
0.0
230
1.0
 70
     8
 71
     3
 72
     8
 73
     4
 74
     0
 42
0.000000001
 43
0.00000001
 40
0.0
 40
0.0
 40
0.0
 40
0.0
 40
1.0
 40
1.0
 40
1.0
 40
1.0
 10
739.6800728227691
 20
352.6138762885928
 30
0.0
 10
738.8212165944728
 20
352.7768058483857
 30
0.0
 10
737.9623603661767
 20
352.7768058483857
 30
0.0
 10
737.1035041378803
 20
352.6138762885928
 30
0.0
  0
SPLINE
  5
13E
330
1F
100
AcDbEntity
  8
0
  6
Continuous
 62
     7
370
    15
100
AcDbSpline
210
0.0
220
0.0
230
1.0
 70
     8
 71
     3
 72
     8
 73
     4
 74
     0
 42
0.000000001
 43
0.00000001
 40
0.0
 40
0.0
 40
0.0
 40
0.0
 40
1.0
 40
1.0
 40
1.0
 40
1.0
 10
368.1407737891971
 20
-1472.435072848132
 30
0.0
 10
368.7887191299737
 20
-1472.598002407925
 30
0.0
 10
369.4366644707504
 20
-1472.598002407925
 30
0.0
 10
370.0846098115269
 20
-1472.435072848132
 30
0.0
  0
SPLINE
  5
13F
330
1F
100
AcDbEntity
  8
0
  6
Continuous
 62
     7
370
    15
100
AcDbSpline
210
0.0
220
0.0
230
1.0
 70
     8
 71
     3
 72
     8
 73
     4
 74
     0
 42
0.000000001
 43
0.00000001
 40
0.0
 40
0.0
 40
0.0
 40
0.0
 40
1.0
 40
1.0
 40
1.0
 40
1.0
 10
365.3205792460382
 20
-1472.435072848132
 30
0.0
 10
366.2606440937578
 20
-1472.598002407925
 30
0.0
 10
367.2007089414774
 20
-1472.598002407925
 30
0.0
 10
368.1407737891971
 20
-1472.435072848132
 30
0.0
  0
SPLINE
  5
143
330
1F
100
AcDbEntity
  8
0
  6
Continuous
 62
     7
370
    15
100
AcDbSpline
210
0.0
220
0.0
230
1.0
 70
     8
 71
     3
 72
     8
 73
     4
 74
     0
 42
0.000000001
 43
0.00000001
 40
0.0
 40
0.0
 40
0.0
 40
0.0
 40
1.0
 40
1.0
 40
1.0
 40
1.0
 10
858.1035041378803
 20
352.6138762885927
 30
0.0
 10
857.29828495308
 20
352.7768058483857
 30
0.0
 10
856.4930657682795
 20
352.7768058483857
 30
0.0
 10
855.6878465834792
 20
352.6138762885927
 30
0.0
  0
SPLINE
  5
144
330
1F
100
AcDbEntity
  8
0
  6
Continuous
 62
     7
370
    15
100
AcDbSpline
210
0.0
220
0.0
230
1.0
 70
     8
 71
     3
 72
     8
 73
     4
 74
     0
 42
0.000000001
 43
0.00000001
 40
0.0
 40
0.0
 40
0.0
 40
0.0
 40
1.0
 40
1.0
 40
1.0
 40
1.0
 10
860.6800728227691
 20
352.6138762885927
 30
0.0
 10
859.8212165944728
 20
352.7768058483857
 30
0.0
 10
858.9623603661767
 20
352.7768058483857
 30
0.0
 10
858.1035041378803
 20
352.6138762885927
 30
0.0
  0
SPLINE
  5
14A
330
1F
100
AcDbEntity
  8
0
  6
Continuous
 62
     7
370
    15
100
AcDbSpline
210
0.0
220
0.0
230
1.0
 70
     8
 71
     3
 72
     8
 73
     4
 74
     0
 42
0.000000001
 43
0.00000001
 40
0.0
 40
0.0
 40
0.0
 40
0.0
 40
1.0
 40
1.0
 40
1.0
 40
1.0
 10
859.140773789197
 20
-1472.435072848132
 30
0.0
 10
859.7887191299736
 20
-1472.598002407925
 30
0.0
 10
860.4366644707503
 20
-1472.598002407925
 30
0.0
 10
861.0846098115269
 20
-1472.435072848132
 30
0.0
  0
SPLINE
  5
14B
330
1F
100
AcDbEntity
  8
0
  6
Continuous
 62
     7
370
    15
100
AcDbSpline
210
0.0
220
0.0
230
1.0
 70
     8
 71
     3
 72
     8
 73
     4
 74
     0
 42
0.000000001
 43
0.00000001
 40
0.0
 40
0.0
 40
0.0
 40
0.0
 40
1.0
 40
1.0
 40
1.0
 40
1.0
 10
856.3205792460382
 20
-1472.435072848132
 30
0.0
 10
857.2606440937578
 20
-1472.598002407925
 30
0.0
 10
858.2007089414775
 20
-1472.598002407925
 30
0.0
 10
859.140773789197
 20
-1472.435072848132
 30
0.0
  0
SPLINE
  5
152
330
1F
100
AcDbEntity
  8
0
  6
Continuous
 62
     7
370
    15
100
AcDbSpline
210
0.0
220
0.0
230
1.0
 70
     8
 71
     3
 72
     8
 73
     4
 74
     0
 42
0.000000001
 43
0.00000001
 40
0.0
 40
0.0
 40
0.0
 40
0.0
 40
1.0
 40
1.0
 40
1.0
 40
1.0
 10
432.1407737891969
 20
-1472.435072848132
 30
0.0
 10
432.7887191299736
 20
-1472.598002407925
 30
0.0
 10
433.4366644707503
 20
-1472.598002407925
 30
0.0
 10
434.0846098115268
 20
-1472.435072848132
 30
0.0
  0
SPLINE
  5
153
330
1F
100
AcDbEntity
  8
0
  6
Continuous
 62
     7
370
    15
100
AcDbSpline
210
0.0
220
0.0
230
1.0
 70
     8
 71
     3
 72
     8
 73
     4
 74
     0
 42
0.000000001
 43
0.00000001
 40
0.0
 40
0.0
 40
0.0
 40
0.0
 40
1.0
 40
1.0
 40
1.0
 40
1.0
 10
429.3205792460381
 20
-1472.435072848132
 30
0.0
 10
430.2606440937578
 20
-1472.598002407925
 30
0.0
 10
431.2007089414773
 20
-1472.598002407925
 30
0.0
 10
432.1407737891969
 20
-1472.435072848132
 30
0.0
  0
SPLINE
  5
157
330
1F
100
AcDbEntity
  8
0
  6
Continuous
 62
     7
370
    15
100
AcDbSpline
210
0.0
220
0.0
230
1.0
 70
     8
 71
     3
 72
     8
 73
     4
 74
     0
 42
0.000000001
 43
0.00000001
 40
0.0
 40
0.0
 40
0.0
 40
0.0
 40
1.0
 40
1.0
 40
1.0
 40
1.0
 10
497.1035041378803
 20
352.6138762885927
 30
0.0
 10
496.29828495308
 20
352.7768058483857
 30
0.0
 10
495.4930657682796
 20
352.7768058483857
 30
0.0
 10
494.6878465834792
 20
352.6138762885927
 30
0.0
  0
SPLINE
  5
158
330
1F
100
AcDbEntity
  8
0
  6
Continuous
 62
     7
370
    15
100
AcDbSpline
210
0.0
220
0.0
230
1.0
 70
     8
 71
     3
 72
     8
 73
     4
 74
     0
 42
0.000000001
 43
0.00000001
 40
0.0
 40
0.0
 40
0.0
 40
0.0
 40
1.0
 40
1.0
 40
1.0
 40
1.0
 10
499.6800728227691
 20
352.6138762885927
 30
0.0
 10
498.8212165944728
 20
352.7768058483857
 30
0.0
 10
497.9623603661767
 20
352.7768058483857
 30
0.0
 10
497.1035041378803
 20
352.6138762885927
 30
0.0
  0
SPLINE
  5
15F
330
1F
100
AcDbEntity
  8
0
  6
Continuous
 62
     7
370
    15
100
AcDbSpline
210
0.0
220
0.0
230
1.0
 70
     8
 71
     3
 72
     8
 73
     4
 74
     0
 42
0.000000001
 43
0.00000001
 40
0.0
 40
0.0
 40
0.0
 40
0.0
 40
1.0
 40
1.0
 40
1.0
 40
1.0
 10
498.1407737891969
 20
-1472.435072848132
 30
0.0
 10
498.7887191299736
 20
-1472.598002407925
 30
0.0
 10
499.4366644707502
 20
-1472.598002407925
 30
0.0
 10
500.0846098115268
 20
-1472.435072848132
 30
0.0
  0
SPLINE
  5
160
330
1F
100
AcDbEntity
  8
0
  6
Continuous
 62
     7
370
    15
100
AcDbSpline
210
0.0
220
0.0
230
1.0
 70
     8
 71
     3
 72
     8
 73
     4
 74
     0
 42
0.000000001
 43
0.00000001
 40
0.0
 40
0.0
 40
0.0
 40
0.0
 40
1.0
 40
1.0
 40
1.0
 40
1.0
 10
495.3205792460381
 20
-1472.435072848132
 30
0.0
 10
496.2606440937578
 20
-1472.598002407925
 30
0.0
 10
497.2007089414773
 20
-1472.598002407925
 30
0.0
 10
498.1407737891969
 20
-1472.435072848132
 30
0.0
  0
LWPOLYLINE
  5
18B
330
1F
100
AcDbEntity
  8
0
  6
Continuous
 62
     7
370
    15
100
AcDbPolyline
 90
       10
 70
   128
 43
0.0
 10
317.3144576923
 20
-1454.9105982798
 10
316.814552889
 20
-1455.7788391681
 10
316.446216804
 20
-1456.6206989964
 10
316.2206411429
 20
-1457.4105982798
 10
316.1446799079
 20
-1458.1245363282
 10
316.2206411429
 20
-1458.7408204954
 10
316.446216804
 20
-1459.2407252987
 10
316.814552889
 20
-1459.6090613837
 10
317.3144576923
 20
-1459.8346370448
 10
317.9307418595
 20
-1459.9105982798
  0
LWPOLYLINE
  5
18D
330
1F
100
AcDbEntity
  8
0
  6
Continuous
 62
     7
370
    15
100
AcDbPolyline
 90
       10
 70
   128
 43
0.0
 10
317.3144576923
 20
335.0894017202
 10
316.814552889
 20
335.9576426086
 10
316.446216804
 20
336.7995024369
 10
316.2206411429
 20
337.5894017202
 10
316.1446799079
 20
338.3033397687
 10
316.2206411429
 20
338.9196239358
 10
316.446216804
 20
339.4195287392
 10
316.814552889
 20
339.7878648242
 10
317.3144576923
 20
340.0134404853
 10
317.9307418595
 20
340.0894017202
  0
LWPOLYLINE
  5
1E1
330
1F
100
AcDbEntity
  8
0
  6
Continuous
 62
     7
370
    15
100
AcDbPolyline
 90
       10
 70
   128
 43
0.0
 10
808.7163886816
 20
-1454.9105982798
 10
807.8689124552
 20
-1455.7788391681
 10
806.998980658
 20
-1456.6206989964
 10
806.1330257275
 20
-1457.4105982798
 10
805.297359266
 20
-1458.1245363282
 10
804.517372576
 20
-1458.7408204954
 10
803.8167651585
 20
-1459.2407252987
 10
803.2168246153
 20
-1459.6090613837
 10
802.7357798363
 20
-1459.8346370448
 10
802.3882471236
 20
-1459.9105982798
  0
LWPOLYLINE
  5
1E2
330
1F
100
AcDbEntity
  8
0
  6
Continuous
 62
     7
370
    15
100
AcDbPolyline
 90
       10
 70
   128
 43
0.0
 10
856.1325714419
 20
-1454.9105982798
 10
856.9318419612
 20
-1455.7788391681
 10
857.6586213431
 20
-1456.6206989964
 10
858.2908267638
 20
-1457.4105982798
 10
858.8092489817
 20
-1458.1245363282
 10
859.1981359998
 20
-1458.7408204954
 10
859.445671683
 20
-1459.2407252987
 10
859.5443347848
 20
-1459.6090613837
 10
859.4911274767
 20
-1459.8346370448
 10
859.2876664359
 20
-1459.9105982798
  0
LWPOLYLINE
  5
1E3
330
1F
100
AcDbEntity
  8
0
  6
Continuous
 62
     7
370
    15
100
AcDbPolyline
 90
       10
 70
   128
 43
0.0
 10
802.3882471236
 20
340.0894017202
 10
802.7357798363
 20
340.0134404853
 10
803.2168246153
 20
339.7878648242
 10
803.8167651585
 20
339.4195287392
 10
804.517372576
 20
338.9196239358
 10
805.297359266
 20
338.3033397687
 10
806.1330257275
 20
337.5894017202
 10
806.998980658
 20
336.7995024369
 10
807.8689124552
 20
335.9576426086
 10
808.7163886816
 20
335.0894017202
  0
LWPOLYLINE
  5
1E5
330
1F
100
AcDbEntity
  8
0
  6
Continuous
 62
     7
370
    15
100
AcDbPolyline
 90
        9
 70
   128
 43
0.0
 10
856.1325714419
 20
335.0894017202
 10
857.0271306783
 20
336.0648533303
 10
857.8263433048
 20
337.0028188821
 10
858.4994960286
 20
337.8672528853
 10
859.0207199679
 20
338.6249356262
 10
859.369984779
 20
339.2467497817
 10
859.5338684112
 20
339.7087993828
 10
859.5060729083
 20
339.9933281222
 10
859.2876664359
 20
340.0894017202
  0
LWPOLYLINE
  5
1EB
330
1F
100
AcDbEntity
  8
0
  6
Continuous
 62
     7
370
    15
100
AcDbPolyline
 90
        9
 70
   128
 43
0.0
 10
917.2143728444
 20
335.0894017202
 10
917.7677844073
 20
336.0648533303
 10
918.1527353825
 20
337.0028188821
 10
918.3544323199
 20
337.8672528853
 10
918.3651241193
 20
338.6249356262
 10
918.1843999007
 20
339.2467497817
 10
917.8192047947
 20
339.7087993828
 10
917.2835730443
 20
339.9933281222
 10
916.5980886772
 20
340.0894017202
  0
LWPOLYLINE
  5
1EE
330
1F
100
AcDbEntity
  8
0
  6
Continuous
 62
     7
370
    15
100
AcDbPolyline
 90
       10
 70
   128
 43
0.0
 10
917.2143728444
 20
-1454.9105982798
 10
917.7142776477
 20
-1455.7788391681
 10
918.0826137327
 20
-1456.6206989964
 10
918.3081893939
 20
-1457.4105982798
 10
918.3841506288
 20
-1458.1245363282
 10
918.3081893939
 20
-1458.7408204954
 10
918.0826137327
 20
-1459.2407252987
 10
917.7142776477
 20
-1459.6090613837
 10
917.2143728444
 20
-1459.8346370448
 10
916.5980886772
 20
-1459.9105982798
  0
LWPOLYLINE
  5
1F9
330
1F
100
AcDbEntity
  8
0
  6
Continuous
 62
     7
370
    15
100
AcDbPolyline
 90
        3
 70
   128
 43
0.0
 10
937.7598308506
 20
336.846079628
 10
937.9498622893
 20
336.0648533303
 10
938.0096459274
 20
335.2971183415
  0
LWPOLYLINE
  5
1FA
330
1F
100
AcDbEntity
  8
0
  6
Continuous
 62
     7
370
    15
100
AcDbPolyline
 90
        3
 70
   128
 43
0.0
 10
938.0096459274
 20
-1455.1183149011
 10
937.9498622893
 20
-1455.8860498899
 10
937.7598307025
 20
-1456.6672766315
  0
LWPOLYLINE
  5
1FC
330
1F
100
AcDbEntity
  8
0
  6
Continuous
 62
     7
370
    15
100
AcDbPolyline
 90
       10
 70
   128
 43
0.0
 10
425.8124418551
 20
335.0894017202
 10
426.6599180815
 20
335.9576426086
 10
427.5298498787
 20
336.7995024369
 10
428.3958048092
 20
337.5894017202
 10
429.2314712708
 20
338.3033397687
 10
430.0114579607
 20
338.9196239358
 10
430.7120653782
 20
339.4195287392
 10
431.3120059214
 20
339.7878648242
 10
431.7930507005
 20
340.0134404853
 10
432.1405834132
 20
340.0894017202
  0
LWPOLYLINE
  5
1FD
330
1F
100
AcDbEntity
  8
0
  6
Continuous
 62
     7
370
    15
100
AcDbPolyline
 90
       10
 70
   128
 43
0.0
 10
378.3962590948
 20
335.0894017202
 10
377.5969885755
 20
335.9576426086
 10
376.8702091937
 20
336.7995024369
 10
376.2380037729
 20
337.5894017202
 10
375.7195815551
 20
338.3033397687
 10
375.3306945369
 20
338.9196239358
 10
375.0831588537
 20
339.4195287392
 10
374.984495752
 20
339.7878648242
 10
375.03770306
 20
340.0134404853
 10
375.2411641008
 20
340.0894017202
  0
LWPOLYLINE
  5
1FE
330
1F
100
AcDbEntity
  8
0
  6
Continuous
 62
     7
370
    15
100
AcDbPolyline
 90
        9
 70
   128
 43
0.0
 10
432.1405834132
 20
-1459.9105982798
 10
431.7399592096
 20
-1459.8145246818
 10
431.1725130383
 20
-1459.5299959423
 10
430.4600515373
 20
-1459.0679463413
 10
429.6299542027
 20
-1458.4461321857
 10
428.7141212094
 20
-1457.6884494449
 10
427.7477475059
 20
-1456.8240154416
 10
426.7679702915
 20
-1455.8860498899
 10
425.8124418551
 20
-1454.9105982798
  0
LWPOLYLINE
  5
200
330
1F
100
AcDbEntity
  8
0
  6
Continuous
 62
     7
370
    15
100
AcDbPolyline
 90
        9
 70
   128
 43
0.0
 10
378.3962590948
 20
-1454.9105982798
 10
377.5016998585
 20
-1455.8860498899
 10
376.7024872319
 20
-1456.8240154416
 10
376.0293345081
 20
-1457.6884494449
 10
375.5081105688
 20
-1458.4461321857
 10
375.1588457577
 20
-1459.0679463413
 10
374.9949621255
 20
-1459.5299959423
 10
375.0227576284
 20
-1459.8145246818
 10
375.2411641008
 20
-1459.9105982798
  0
LINE
  5
250
330
1F
100
AcDbEntity
  8
0
  6
Continuous
 62
     7
370
    15
100
AcDbLine
 10
383.2644152684
 20
-1469.5674525293
 30
0.0
 11
383.2644152684
 21
-1468.5105982798
 31
0.0
  0
LINE
  5
251
330
1F
100
AcDbEntity
  8
0
  6
Continuous
 62
     7
370
    15
100
AcDbLine
 10
438.2644152684
 20
348.6894017202
 30
0.0
 11
438.2644152684
 21
349.7462559697
 31
0.0
  0
LINE
  5
252
330
1F
100
AcDbEntity
  8
0
  6
Continuous
 62
     7
370
    15
100
AcDbLine
 10
424.2644152684
 20
349.7462559697
 30
0.0
 11
424.2644152684
 21
348.6894017202
 31
0.0
  0
LINE
  5
253
330
1F
100
AcDbEntity
  8
0
  6
Continuous
 62
     7
370
    15
100
AcDbLine
 10
374.2644152684
 20
348.6894017202
 30
0.0
 11
374.2644152684
 21
349.7462559697
 31
0.0
  0
LINE
  5
254
330
1F
100
AcDbEntity
  8
0
  6
Continuous
 62
     7
370
    15
100
AcDbLine
 10
360.2644152684
 20
349.7462559697
 30
0.0
 11
360.2644152684
 21
348.6894017202
 31
0.0
  0
LINE
  5
255
330
1F
100
AcDbEntity
  8
0
  6
Continuous
 62
     7
370
    15
100
AcDbLine
 10
383.2644152684
 20
348.6894017202
 30
0.0
 11
383.2644152684
 21
349.7462559697
 31
0.0
  0
LINE
  5
256
330
1F
100
AcDbEntity
  8
0
  6
Continuous
 62
     7
370
    15
100
AcDbLine
 10
730.2644152684
 20
-1468.5105982798
 30
0.0
 11
730.2644152684
 21
-1469.5674525293
 31
0.0
  0
LINE
  5
257
330
1F
100
AcDbEntity
  8
0
  6
Continuous
 62
     7
370
    15
100
AcDbLine
 10
744.2644152684
 20
-1469.5674525293
 30
0.0
 11
744.2644152684
 21
-1468.5105982798
 31
0.0
  0
LINE
  5
258
330
1F
100
AcDbEntity
  8
0
  6
Continuous
 62
     7
370
    15
100
AcDbLine
 10
860.2644152684
 20
-1468.5105982798
 30
0.0
 11
860.2644152684
 21
-1469.5674525293
 31
0.0
  0
LINE
  5
259
330
1F
100
AcDbEntity
  8
0
  6
Continuous
 62
     7
370
    15
100
AcDbLine
 10
874.2644152684
 20
-1469.5674525293
 30
0.0
 11
874.2644152684
 21
-1468.5105982798
 31
0.0
  0
LINE
  5
25A
330
1F
100
AcDbEntity
  8
0
  6
Continuous
 62
     7
370
    15
100
AcDbLine
 10
810.2644152684
 20
348.6894017202
 30
0.0
 11
810.2644152684
 21
349.7462559697
 31
0.0
  0
LINE
  5
25B
330
1F
100
AcDbEntity
  8
0
  6
Continuous
 62
     7
370
    15
100
AcDbLine
 10
796.2644152684
 20
349.7462559697
 30
0.0
 11
796.2644152684
 21
348.6894017202
 31
0.0
  0
LINE
  5
25C
330
1F
100
AcDbEntity
  8
0
  6
Continuous
 62
     7
370
    15
100
AcDbLine
 10
874.2644152684
 20
348.6894017202
 30
0.0
 11
874.2644152684
 21
349.7462559697
 31
0.0
  0
LINE
  5
25D
330
1F
100
AcDbEntity
  8
0
  6
Continuous
 62
     7
370
    15
100
AcDbLine
 10
860.2644152684
 20
349.7462559697
 30
0.0
 11
860.2644152684
 21
348.6894017202
 31
0.0
  0
LINE
  5
25E
330
1F
100
AcDbEntity
  8
0
  6
Continuous
 62
     7
370
    15
100
AcDbLine
 10
796.2644152684
 20
-1468.5105982798
 30
0.0
 11
796.2644152684
 21
-1469.5674525293
 31
0.0
  0
LINE
  5
25F
330
1F
100
AcDbEntity
  8
0
  6
Continuous
 62
     7
370
    15
100
AcDbLine
 10
810.2644152684
 20
-1469.5674525293
 30
0.0
 11
810.2644152684
 21
-1468.5105982798
 31
0.0
  0
LINE
  5
260
330
1F
100
AcDbEntity
  8
0
  6
Continuous
 62
     7
370
    15
100
AcDbLine
 10
337.4417851221
 20
345.0894017202
 30
0.0
 11
337.4417851221
 21
340.0894017202
 31
0.0
  0
LINE
  5
261
330
1F
100
AcDbEntity
  8
0
  6
Continuous
 62
     7
370
    15
100
AcDbLine
 10
897.0870454147
 20
340.0894017202
 30
0.0
 11
897.0870454147
 21
345.0894017202
 31
0.0
  0
LINE
  5
262
330
1F
100
AcDbEntity
  8
0
  6
Continuous
 62
     7
370
    15
100
AcDbLine
 10
897.0870454147
 20
-1464.9105982798
 30
0.0
 11
897.0870454147
 21
-1459.9105982798
 31
0.0
  0
LINE
  5
263
330
1F
100
AcDbEntity
  8
0
  6
Continuous
 62
     7
370
    15
100
AcDbLine
 10
337.4417851221
 20
-1459.9105982798
 30
0.0
 11
337.4417851221
 21
-1464.9105982798
 31
0.0
  0
LINE
  5
264
330
1F
100
AcDbEntity
  8
0
  6
Continuous
 62
     7
370
    15
100
AcDbLine
 10
296.5191846093
 20
335.2971183416
 30
0.0
 11
296.5191846093
 21
-1455.1183149011
 31
0.0
  0
LINE
  5
265
330
1F
100
AcDbEntity
  8
0
  6
Continuous
 62
     7
370
    15
100
AcDbLine
 10
744.2644152684
 20
348.6894017202
 30
0.0
 11
744.2644152684
 21
349.7462559697
 31
0.0
  0
LINE
  5
266
330
1F
100
AcDbEntity
  8
0
  6
Continuous
 62
     7
370
    15
100
AcDbLine
 10
730.2644152684
 20
349.7462559697
 30
0.0
 11
730.2644152684
 21
348.6894017202
 31
0.0
  0
LINE
  5
267
330
1F
100
AcDbEntity
  8
0
  6
Continuous
 62
     7
370
    15
100
AcDbLine
 10
360.2644152684
 20
-1468.5105982798
 30
0.0
 11
360.2644152684
 21
-1469.5674525293
 31
0.0
  0
LINE
  5
268
330
1F
100
AcDbEntity
  8
0
  6
Continuous
 62
     7
370
    15
100
AcDbLine
 10
374.2644152684
 20
-1469.5674525293
 30
0.0
 11
374.2644152684
 21
-1468.5105982798
 31
0.0
  0
LINE
  5
269
330
1F
100
AcDbEntity
  8
0
  6
Continuous
 62
     7
370
    15
100
AcDbLine
 10
851.2644152684
 20
349.7462559697
 30
0.0
 11
851.2644152684
 21
348.6894017202
 31
0.0
  0
LINE
  5
26A
330
1F
100
AcDbEntity
  8
0
  6
Continuous
 62
     7
370
    15
100
AcDbLine
 10
851.2644152684
 20
-1468.5105982798
 30
0.0
 11
851.2644152684
 21
-1469.5674525293
 31
0.0
  0
LINE
  5
26B
330
1F
100
AcDbEntity
  8
0
  6
Continuous
 62
     7
370
    15
100
AcDbLine
 10
424.2644152684
 20
-1468.5105982798
 30
0.0
 11
424.2644152684
 21
-1469.5674525293
 31
0.0
  0
LINE
  5
26C
330
1F
100
AcDbEntity
  8
0
  6
Continuous
 62
     7
370
    15
100
AcDbLine
 10
438.2644152684
 20
-1469.5674525293
 30
0.0
 11
438.2644152684
 21
-1468.5105982798
 31
0.0
  0
LINE
  5
26D
330
1F
100
AcDbEntity
  8
0
  6
Continuous
 62
     7
370
    15
100
AcDbLine
 10
504.2644152684
 20
348.6894017202
 30
0.0
 11
504.2644152684
 21
349.7462559697
 31
0.0
  0
LINE
  5
26E
330
1F
100
AcDbEntity
  8
0
  6
Continuous
 62
     7
370
    15
100
AcDbLine
 10
490.2644152684
 20
349.7462559697
 30
0.0
 11
490.2644152684
 21
348.6894017202
 31
0.0
  0
LINE
  5
26F
330
1F
100
AcDbEntity
  8
0
  6
Continuous
 62
     7
370
    15
100
AcDbLine
 10
490.2644152684
 20
-1468.5105982798
 30
0.0
 11
490.2644152684
 21
-1469.5674525293
 31
0.0
  0
LINE
  5
270
330
1F
100
AcDbEntity
  8
0
  6
Continuous
 62
     7
370
    15
100
AcDbLine
 10
504.2644152684
 20
-1469.5674525293
 30
0.0
 11
504.2644152684
 21
-1468.5105982798
 31
0.0
  0
LINE
  5
271
330
1F
100
AcDbEntity
  8
0
  6
Continuous
 62
     7
370
    15
100
AcDbLine
 10
729.2644152684
 20
348.6894017202
 30
0.0
 11
729.2644152684
 21
347.0894017202
 31
0.0
  0
LINE
  5
272
330
1F
100
AcDbEntity
  8
0
  6
Continuous
 62
     7
370
    15
100
AcDbLine
 10
745.2644152684
 20
347.0894017202
 30
0.0
 11
745.2644152684
 21
348.6894017202
 31
0.0
  0
LINE
  5
273
330
1F
100
AcDbEntity
  8
0
  6
Continuous
 62
     7
370
    15
100
AcDbLine
 10
375.2644152684
 20
-1468.5105982798
 30
0.0
 11
375.2644152684
 21
-1466.9105982798
 31
0.0
  0
LINE
  5
274
330
1F
100
AcDbEntity
  8
0
  6
Continuous
 62
     7
370
    15
100
AcDbLine
 10
359.2644152684
 20
-1466.9105982798
 30
0.0
 11
359.2644152684
 21
-1468.5105982798
 31
0.0
  0
LINE
  5
275
330
1F
100
AcDbEntity
  8
0
  6
Continuous
 62
     7
370
    15
100
AcDbLine
 10
850.2644152684
 20
348.6894017202
 30
0.0
 11
850.2644152684
 21
347.0894017202
 31
0.0
  0
LINE
  5
276
330
1F
100
AcDbEntity
  8
0
  6
Continuous
 62
     7
370
    15
100
AcDbLine
 10
850.2644152684
 20
-1466.9105982798
 30
0.0
 11
850.2644152684
 21
-1468.5105982798
 31
0.0
  0
LINE
  5
277
330
1F
100
AcDbEntity
  8
0
  6
Continuous
 62
     7
370
    15
100
AcDbLine
 10
439.2644152684
 20
-1468.5105982798
 30
0.0
 11
439.2644152684
 21
-1466.9105982798
 31
0.0
  0
LINE
  5
278
330
1F
100
AcDbEntity
  8
0
  6
Continuous
 62
     7
370
    15
100
AcDbLine
 10
423.2644152684
 20
-1466.9105982798
 30
0.0
 11
423.2644152684
 21
-1468.5105982798
 31
0.0
  0
LINE
  5
279
330
1F
100
AcDbEntity
  8
0
  6
Continuous
 62
     7
370
    15
100
AcDbLine
 10
489.2644152684
 20
348.6894017202
 30
0.0
 11
489.2644152684
 21
347.0894017202
 31
0.0
  0
LINE
  5
27A
330
1F
100
AcDbEntity
  8
0
  6
Continuous
 62
     7
370
    15
100
AcDbLine
 10
505.2644152684
 20
347.0894017202
 30
0.0
 11
505.2644152684
 21
348.6894017202
 31
0.0
  0
LINE
  5
27B
330
1F
100
AcDbEntity
  8
0
  6
Continuous
 62
     7
370
    15
100
AcDbLine
 10
505.2644152684
 20
-1468.5105982798
 30
0.0
 11
505.2644152684
 21
-1466.9105982798
 31
0.0
  0
LINE
  5
27C
330
1F
100
AcDbEntity
  8
0
  6
Continuous
 62
     7
370
    15
100
AcDbLine
 10
489.2644152684
 20
-1466.9105982798
 30
0.0
 11
489.2644152684
 21
-1468.5105982798
 31
0.0
  0
LINE
  5
27D
330
1F
100
AcDbEntity
  8
0
  6
Continuous
 62
     7
370
    15
100
AcDbLine
 10
605.2644152684
 20
-1471.9105982798
 30
0.0
 11
605.2644152684
 21
-1484.9105982798
 31
0.0
  0
LINE
  5
27E
330
1F
100
AcDbEntity
  8
0
  6
Continuous
 62
     7
370
    15
100
AcDbLine
 10
629.2644152684
 20
-1484.9105982798
 30
0.0
 11
629.2644152684
 21
-1471.9105982798
 31
0.0
  0
LINE
  5
27F
330
1F
100
AcDbEntity
  8
0
  6
Continuous
 62
     7
370
    15
100
AcDbLine
 10
605.2644152684
 20
-1484.9105982798
 30
0.0
 11
606.2644152684
 21
-1485.9105982798
 31
0.0
  0
LINE
  5
280
330
1F
100
AcDbEntity
  8
0
  6
Continuous
 62
     7
370
    15
100
AcDbLine
 10
628.2644152684
 20
-1485.9105982798
 30
0.0
 11
629.2644152684
 21
-1484.9105982798
 31
0.0
  0
LINE
  5
281
330
1F
100
AcDbEntity
  8
0
  6
Continuous
 62
     7
370
    15
100
AcDbLine
 10
629.2644152684
 20
352.0894017202
 30
0.0
 11
629.2644152684
 21
365.0894017202
 31
0.0
  0
LINE
  5
282
330
1F
100
AcDbEntity
  8
0
  6
Continuous
 62
     7
370
    15
100
AcDbLine
 10
605.2644152684
 20
365.0894017202
 30
0.0
 11
605.2644152684
 21
352.0894017202
 31
0.0
  0
LINE
  5
283
330
1F
100
AcDbEntity
  8
0
  6
Continuous
 62
     7
370
    15
100
AcDbLine
 10
629.2644152684
 20
365.0894017202
 30
0.0
 11
628.2644152684
 21
366.0894017202
 31
0.0
  0
LINE
  5
284
330
1F
100
AcDbEntity
  8
0
  6
Continuous
 62
     7
370
    15
100
AcDbLine
 10
606.2644152684
 20
366.0894017202
 30
0.0
 11
605.2644152684
 21
365.0894017202
 31
0.0
  0
LINE
  5
285
330
1F
100
AcDbEntity
  8
0
  6
Continuous
 62
     7
370
    15
100
AcDbLine
 10
510.5389385673
 20
-1459.8984185311
 30
0.0
 11
510.5389385673
 21
340.0772219715
 31
0.0
  0
LINE
  5
286
330
1F
100
AcDbEntity
  8
0
  6
Continuous
 62
     7
370
    15
100
AcDbLine
 10
316.1446799079
 20
338.3033397687
 30
0.0
 11
316.1446799079
 21
-1458.1245363282
 31
0.0
  0
LINE
  5
287
330
1F
100
AcDbEntity
  8
0
  6
Continuous
 62
     7
370
    15
100
AcDbLine
 10
296.6491723959
 20
335.785267225
 30
0.0
 11
296.6491723959
 21
-1455.6064637846
 31
0.0
  0
LINE
  5
288
330
1F
100
AcDbEntity
  8
0
  6
Continuous
 62
     7
370
    15
100
AcDbLine
 10
384.2644152684
 20
-1468.5105982798
 30
0.0
 11
384.2644152684
 21
-1466.9105982798
 31
0.0
  0
LINE
  5
289
330
1F
100
AcDbEntity
  8
0
  6
Continuous
 62
     7
370
    15
100
AcDbLine
 10
423.2644152684
 20
348.6894017202
 30
0.0
 11
423.2644152684
 21
347.0894017202
 31
0.0
  0
LINE
  5
28A
330
1F
100
AcDbEntity
  8
0
  6
Continuous
 62
     7
370
    15
100
AcDbLine
 10
439.2644152684
 20
347.0894017202
 30
0.0
 11
439.2644152684
 21
348.6894017202
 31
0.0
  0
LINE
  5
28B
330
1F
100
AcDbEntity
  8
0
  6
Continuous
 62
     7
370
    15
100
AcDbLine
 10
359.2644152684
 20
348.6894017202
 30
0.0
 11
359.2644152684
 21
347.0894017202
 31
0.0
  0
LINE
  5
28C
330
1F
100
AcDbEntity
  8
0
  6
Continuous
 62
     7
370
    15
100
AcDbLine
 10
375.2644152684
 20
347.0894017202
 30
0.0
 11
375.2644152684
 21
348.6894017202
 31
0.0
  0
LINE
  5
28D
330
1F
100
AcDbEntity
  8
0
  6
Continuous
 62
     7
370
    15
100
AcDbLine
 10
384.2644152684
 20
347.0894017202
 30
0.0
 11
384.2644152684
 21
348.6894017202
 31
0.0
  0
LINE
  5
28E
330
1F
100
AcDbEntity
  8
0
  6
Continuous
 62
     7
370
    15
100
AcDbLine
 10
745.2644152684
 20
-1468.5105982798
 30
0.0
 11
745.2644152684
 21
-1466.9105982798
 31
0.0
  0
LINE
  5
28F
330
1F
100
AcDbEntity
  8
0
  6
Continuous
 62
     7
370
    15
100
AcDbLine
 10
729.2644152684
 20
-1466.9105982798
 30
0.0
 11
729.2644152684
 21
-1468.5105982798
 31
0.0
  0
LINE
  5
290
330
1F
100
AcDbEntity
  8
0
  6
Continuous
 62
     7
370
    15
100
AcDbLine
 10
875.2644152684
 20
-1468.5105982798
 30
0.0
 11
875.2644152684
 21
-1466.9105982798
 31
0.0
  0
LINE
  5
291
330
1F
100
AcDbEntity
  8
0
  6
Continuous
 62
     7
370
    15
100
AcDbLine
 10
859.2644152684
 20
-1466.9105982798
 30
0.0
 11
859.2644152684
 21
-1468.5105982798
 31
0.0
  0
LINE
  5
292
330
1F
100
AcDbEntity
  8
0
  6
Continuous
 62
     7
370
    15
100
AcDbLine
 10
795.2644152684
 20
348.6894017202
 30
0.0
 11
795.2644152684
 21
347.0894017202
 31
0.0
  0
LINE
  5
293
330
1F
100
AcDbEntity
  8
0
  6
Continuous
 62
     7
370
    15
100
AcDbLine
 10
811.2644152684
 20
347.0894017202
 30
0.0
 11
811.2644152684
 21
348.6894017202
 31
0.0
  0
LINE
  5
294
330
1F
100
AcDbEntity
  8
0
  6
Continuous
 62
     7
370
    15
100
AcDbLine
 10
859.2644152684
 20
348.6894017202
 30
0.0
 11
859.2644152684
 21
347.0894017202
 31
0.0
  0
LINE
  5
295
330
1F
100
AcDbEntity
  8
0
  6
Continuous
 62
     7
370
    15
100
AcDbLine
 10
875.2644152684
 20
347.0894017202
 30
0.0
 11
875.2644152684
 21
348.6894017202
 31
0.0
  0
LINE
  5
296
330
1F
100
AcDbEntity
  8
0
  6
Continuous
 62
     7
370
    15
100
AcDbLine
 10
811.2644152684
 20
-1468.5105982798
 30
0.0
 11
811.2644152684
 21
-1466.9105982798
 31
0.0
  0
LINE
  5
297
330
1F
100
AcDbEntity
  8
0
  6
Continuous
 62
     7
370
    15
100
AcDbLine
 10
795.2644152684
 20
-1466.9105982798
 30
0.0
 11
795.2644152684
 21
-1468.5105982798
 31
0.0
  0
LINE
  5
298
330
1F
100
AcDbEntity
  8
0
  6
Continuous
 62
     7
370
    15
100
AcDbLine
 10
579.1338533599
 20
-1459.9075524149
 30
0.0
 11
579.1338533599
 21
340.0863558553
 31
0.0
  0
LINE
  5
299
330
1F
100
AcDbEntity
  8
0
  6
Continuous
 62
     7
370
    15
100
AcDbLine
 10
920.0870454147
 20
-1466.9105982798
 30
0.0
 11
920.0870454147
 21
-1464.9105982798
 31
0.0
  0
LINE
  5
29A
330
1F
100
AcDbEntity
  8
0
  6
Continuous
 62
     7
370
    15
100
AcDbLine
 10
314.4417851221
 20
-1464.9105982798
 30
0.0
 11
314.4417851221
 21
-1466.9105982798
 31
0.0
  0
LINE
  5
29B
330
1F
100
AcDbEntity
  8
0
  6
Continuous
 62
     7
370
    15
100
AcDbLine
 10
920.0870454147
 20
345.0894017202
 30
0.0
 11
920.0870454147
 21
347.0894017202
 31
0.0
  0
LINE
  5
29C
330
1F
100
AcDbEntity
  8
0
  6
Continuous
 62
     7
370
    15
100
AcDbLine
 10
314.4417851221
 20
347.0894017202
 30
0.0
 11
314.4417851221
 21
345.0894017202
 31
0.0
  0
LINE
  5
29D
330
1F
100
AcDbEntity
  8
0
  6
Continuous
 62
     7
370
    15
100
AcDbLine
 10
655.3949771769
 20
340.0863558553
 30
0.0
 11
655.3949771769
 21
-1459.9075524149
 31
0.0
  0
LINE
  5
29E
330
1F
100
AcDbEntity
  8
0
  6
Continuous
 62
     7
370
    15
100
AcDbLine
 10
723.9898919694
 20
340.0772219715
 30
0.0
 11
723.9898919694
 21
-1459.8984185311
 31
0.0
  0
LINE
  5
29F
330
1F
100
AcDbEntity
  8
0
  6
Continuous
 62
     7
370
    15
100
AcDbLine
 10
859.5460481599
 20
-1459.6522165558
 30
0.0
 11
859.5460481599
 21
339.8310199963
 31
0.0
  0
LINE
  5
2A0
330
1F
100
AcDbEntity
  8
0
  6
Continuous
 62
     7
370
    15
100
AcDbLine
 10
918.3841506288
 20
-1458.1245363282
 30
0.0
 11
918.3841506288
 21
338.3033397687
 31
0.0
  0
LINE
  5
2A1
330
1F
100
AcDbEntity
  8
0
  6
Continuous
 62
     7
370
    15
100
AcDbLine
 10
937.8796581408
 20
-1455.6064637846
 30
0.0
 11
937.8796581408
 21
335.785267225
 31
0.0
  0
LINE
  5
2A2
330
1F
100
AcDbEntity
  8
0
  6
Continuous
 62
     7
370
    15
100
AcDbLine
 10
938.0096459274
 20
-1455.1183149011
 30
0.0
 11
938.0096459274
 21
335.2971183415
 31
0.0
  0
LINE
  5
2A3
330
1F
100
AcDbEntity
  8
0
  6
Continuous
 62
     7
370
    15
100
AcDbLine
 10
374.9827823768
 20
339.8310199963
 30
0.0
 11
374.9827823768
 21
-1459.6522165558
 31
0.0
  0
LINE
  5
2A4
330
1F
100
AcDbEntity
  8
0
  6
Continuous
 62
     7
370
    15
100
AcDbLine
 10
373.6393084694
 20
-1472.4350728481
 30
0.0
 11
374.320579246
 21
-1472.4350728481
 31
0.0
  0
LINE
  5
2A5
330
1F
100
AcDbEntity
  8
0
  6
Continuous
 62
     7
370
    15
100
AcDbLine
 10
375.3880567475
 20
-1472.4350728481
 30
0.0
 11
374.670579246
 21
-1472.4350728481
 31
0.0
  0
LINE
  5
2A6
330
1F
100
AcDbEntity
  8
0
  6
Continuous
 62
     7
370
    15
100
AcDbLine
 10
378.2082512907
 20
-1472.4350728481
 30
0.0
 11
377.4907737892
 21
-1472.4350728481
 31
0.0
  0
LINE
  5
2A7
330
1F
100
AcDbEntity
  8
0
  6
Continuous
 62
     7
370
    15
100
AcDbLine
 10
379.0846098115
 20
-1472.4350728481
 30
0.0
 11
378.8893929092
 21
-1472.4350728481
 31
0.0
  0
LINE
  5
2A8
330
1F
100
AcDbEntity
  8
0
  6
Continuous
 62
     7
370
    15
100
AcDbLine
 10
374.2644152684
 20
-1469.5674525293
 30
0.0
 11
383.2644147004
 21
-1469.5674525293
 31
0.0
  0
LINE
  5
2A9
330
1F
100
AcDbEntity
  8
0
  6
Continuous
 62
     7
370
    15
100
AcDbLine
 10
428.6878465835
 20
352.6138762886
 30
0.0
 11
428.7604373291
 21
352.6138762886
 31
0.0
  0
LINE
  5
2AA
330
1F
100
AcDbEntity
  8
0
  6
Continuous
 62
     7
370
    15
100
AcDbLine
 10
438.2644149472
 20
349.7462559697
 30
0.0
 11
424.2644154328
 21
349.7462559697
 31
0.0
  0
LINE
  5
2AB
330
1F
100
AcDbEntity
  8
0
  6
Continuous
 62
     7
370
    15
100
AcDbLine
 10
364.6878465835
 20
352.6138762886
 30
0.0
 11
364.7604373291
 21
352.6138762886
 31
0.0
  0
LINE
  5
2AC
330
1F
100
AcDbEntity
  8
0
  6
Continuous
 62
     7
370
    15
100
AcDbLine
 10
374.2644149472
 20
349.7462559697
 30
0.0
 11
360.2644154328
 21
349.7462559697
 31
0.0
  0
LINE
  5
2AD
330
1F
100
AcDbEntity
  8
0
  6
Continuous
 62
     7
370
    15
100
AcDbLine
 10
373.6878465835
 20
352.6138762886
 30
0.0
 11
373.7604373291
 21
352.6138762886
 31
0.0
  0
LINE
  5
2AE
330
1F
100
AcDbEntity
  8
0
  6
Continuous
 62
     7
370
    15
100
AcDbLine
 10
383.2644149472
 20
349.7462559697
 30
0.0
 11
374.2644152684
 21
349.7462559697
 31
0.0
  0
LINE
  5
2AF
330
1F
100
AcDbEntity
  8
0
  6
Continuous
 62
     7
370
    15
100
AcDbLine
 10
734.6393084694
 20
-1472.4350728481
 30
0.0
 11
735.320579246
 21
-1472.4350728481
 31
0.0
  0
LINE
  5
2B0
330
1F
100
AcDbEntity
  8
0
  6
Continuous
 62
     7
370
    15
100
AcDbLine
 10
736.3880567475
 20
-1472.4350728481
 30
0.0
 11
735.670579246
 21
-1472.4350728481
 31
0.0
  0
LINE
  5
2B1
330
1F
100
AcDbEntity
  8
0
  6
Continuous
 62
     7
370
    15
100
AcDbLine
 10
739.2082512907
 20
-1472.4350728481
 30
0.0
 11
738.4907737892
 21
-1472.4350728481
 31
0.0
  0
LINE
  5
2B2
330
1F
100
AcDbEntity
  8
0
  6
Continuous
 62
     7
370
    15
100
AcDbLine
 10
740.0846098115
 20
-1472.4350728481
 30
0.0
 11
739.8893929092
 21
-1472.4350728481
 31
0.0
  0
LINE
  5
2B3
330
1F
100
AcDbEntity
  8
0
  6
Continuous
 62
     7
370
    15
100
AcDbLine
 10
730.2644152751
 20
-1469.5674525293
 30
0.0
 11
744.2644147004
 21
-1469.5674525293
 31
0.0
  0
LINE
  5
2B4
330
1F
100
AcDbEntity
  8
0
  6
Continuous
 62
     7
370
    15
100
AcDbLine
 10
864.6393084694
 20
-1472.4350728481
 30
0.0
 11
865.320579246
 21
-1472.4350728481
 31
0.0
  0
LINE
  5
2B5
330
1F
100
AcDbEntity
  8
0
  6
Continuous
 62
     7
370
    15
100
AcDbLine
 10
866.3880567475
 20
-1472.4350728481
 30
0.0
 11
865.670579246
 21
-1472.4350728481
 31
0.0
  0
LINE
  5
2B6
330
1F
100
AcDbEntity
  8
0
  6
Continuous
 62
     7
370
    15
100
AcDbLine
 10
869.2082512907
 20
-1472.4350728481
 30
0.0
 11
868.4907737892
 21
-1472.4350728481
 31
0.0
  0
LINE
  5
2B7
330
1F
100
AcDbEntity
  8
0
  6
Continuous
 62
     7
370
    15
100
AcDbLine
 10
870.0846098115
 20
-1472.4350728481
 30
0.0
 11
869.8893929092
 21
-1472.4350728481
 31
0.0
  0
LINE
  5
2B8
330
1F
100
AcDbEntity
  8
0
  6
Continuous
 62
     7
370
    15
100
AcDbLine
 10
851.2644152751
 20
-1469.5674525293
 30
0.0
 11
874.2644147004
 21
-1469.5674525293
 31
0.0
  0
LINE
  5
2B9
330
1F
100
AcDbEntity
  8
0
  6
Continuous
 62
     7
370
    15
100
AcDbLine
 10
800.6878465835
 20
352.6138762886
 30
0.0
 11
800.7604373291
 21
352.6138762886
 31
0.0
  0
LINE
  5
2BA
330
1F
100
AcDbEntity
  8
0
  6
Continuous
 62
     7
370
    15
100
AcDbLine
 10
810.2644149472
 20
349.7462559697
 30
0.0
 11
796.2644154328
 21
349.7462559697
 31
0.0
  0
LINE
  5
2BB
330
1F
100
AcDbEntity
  8
0
  6
Continuous
 62
     7
370
    15
100
AcDbLine
 10
864.6878465835
 20
352.6138762886
 30
0.0
 11
864.7604373291
 21
352.6138762886
 31
0.0
  0
LINE
  5
2BC
330
1F
100
AcDbEntity
  8
0
  6
Continuous
 62
     7
370
    15
100
AcDbLine
 10
874.2644149472
 20
349.7462559697
 30
0.0
 11
860.2644154328
 21
349.7462559697
 31
0.0
  0
LINE
  5
2BD
330
1F
100
AcDbEntity
  8
0
  6
Continuous
 62
     7
370
    15
100
AcDbLine
 10
800.6393084694
 20
-1472.4350728481
 30
0.0
 11
801.320579246
 21
-1472.4350728481
 31
0.0
  0
LINE
  5
2BE
330
1F
100
AcDbEntity
  8
0
  6
Continuous
 62
     7
370
    15
100
AcDbLine
 10
802.3880567475
 20
-1472.4350728481
 30
0.0
 11
801.670579246
 21
-1472.4350728481
 31
0.0
  0
LINE
  5
2BF
330
1F
100
AcDbEntity
  8
0
  6
Continuous
 62
     7
370
    15
100
AcDbLine
 10
805.2082512907
 20
-1472.4350728481
 30
0.0
 11
804.4907737892
 21
-1472.4350728481
 31
0.0
  0
LINE
  5
2C0
330
1F
100
AcDbEntity
  8
0
  6
Continuous
 62
     7
370
    15
100
AcDbLine
 10
806.0846098115
 20
-1472.4350728481
 30
0.0
 11
805.8893929092
 21
-1472.4350728481
 31
0.0
  0
LINE
  5
2C1
330
1F
100
AcDbEntity
  8
0
  6
Continuous
 62
     7
370
    15
100
AcDbLine
 10
796.2644152751
 20
-1469.5674525293
 30
0.0
 11
810.2644147004
 21
-1469.5674525293
 31
0.0
  0
LINE
  5
2C2
330
1F
100
AcDbEntity
  8
0
  6
Continuous
 62
     7
370
    15
100
AcDbLine
 10
443.2462463874
 20
245.0894017202
 30
0.0
 11
448.231439222
 21
245.0894017202
 31
0.0
  0
LINE
  5
2C3
330
1F
100
AcDbEntity
  8
0
  6
Continuous
 62
     7
370
    15
100
AcDbLine
 10
786.2973913148
 20
245.0894017202
 30
0.0
 11
791.2825841494
 21
245.0894017202
 31
0.0
  0
LINE
  5
2C4
330
1F
100
AcDbEntity
  8
0
  6
Continuous
 62
     7
370
    15
100
AcDbLine
 10
723.9898919694
 20
245.0894017202
 30
0.0
 11
716.5829550475
 21
245.0894017202
 31
0.0
  0
LINE
  5
2C5
330
1F
100
AcDbEntity
  8
0
  6
Continuous
 62
     7
370
    15
100
AcDbLine
 10
655.3949771769
 20
245.0894017202
 30
0.0
 11
647.2644152684
 21
245.0894017202
 31
0.0
  0
LINE
  5
2C6
330
1F
100
AcDbEntity
  8
0
  6
Continuous
 62
     7
370
    15
100
AcDbLine
 10
587.2644152684
 20
245.0894017202
 30
0.0
 11
579.1338533599
 21
245.0894017202
 31
0.0
  0
LINE
  5
2C7
330
1F
100
AcDbEntity
  8
0
  6
Continuous
 62
     7
370
    15
100
AcDbLine
 10
517.9458754892
 20
245.0894017202
 30
0.0
 11
510.5389385673
 21
245.0894017202
 31
0.0
  0
LINE
  5
2C8
330
1F
100
AcDbEntity
  8
0
  6
Continuous
 62
     7
370
    15
100
AcDbLine
 10
510.5389385673
 20
-529.9105982798
 30
0.0
 11
517.9458754892
 21
-529.9105982798
 31
0.0
  0
LINE
  5
2C9
330
1F
100
AcDbEntity
  8
0
  6
Continuous
 62
     7
370
    15
100
AcDbLine
 10
579.1338533599
 20
-529.9105982798
 30
0.0
 11
587.2644152684
 21
-529.9105982798
 31
0.0
  0
LINE
  5
2CA
330
1F
100
AcDbEntity
  8
0
  6
Continuous
 62
     7
370
    15
100
AcDbLine
 10
647.2644152684
 20
-529.9105982798
 30
0.0
 11
655.3949771769
 21
-529.9105982798
 31
0.0
  0
LINE
  5
2CB
330
1F
100
AcDbEntity
  8
0
  6
Continuous
 62
     7
370
    15
100
AcDbLine
 10
716.5829550475
 20
-529.9105982798
 30
0.0
 11
723.9898919694
 21
-529.9105982798
 31
0.0
  0
LINE
  5
2CC
330
1F
100
AcDbEntity
  8
0
  6
Continuous
 62
     7
370
    15
100
AcDbLine
 10
723.9898919694
 20
-589.9105982798
 30
0.0
 11
716.5829550475
 21
-589.9105982798
 31
0.0
  0
LINE
  5
2CD
330
1F
100
AcDbEntity
  8
0
  6
Continuous
 62
     7
370
    15
100
AcDbLine
 10
655.3949771769
 20
-589.9105982798
 30
0.0
 11
647.2644152684
 21
-589.9105982798
 31
0.0
  0
LINE
  5
2CE
330
1F
100
AcDbEntity
  8
0
  6
Continuous
 62
     7
370
    15
100
AcDbLine
 10
587.2644152684
 20
-589.9105982798
 30
0.0
 11
579.1338533599
 21
-589.9105982798
 31
0.0
  0
LINE
  5
2CF
330
1F
100
AcDbEntity
  8
0
  6
Continuous
 62
     7
370
    15
100
AcDbLine
 10
517.9458754892
 20
-589.9105982798
 30
0.0
 11
510.5389385673
 21
-589.9105982798
 31
0.0
  0
LINE
  5
2D0
330
1F
100
AcDbEntity
  8
0
  6
Continuous
 62
     7
370
    15
100
AcDbLine
 10
791.2825841494
 20
-1364.9105982798
 30
0.0
 11
786.2973913148
 21
-1364.9105982798
 31
0.0
  0
LINE
  5
2D1
330
1F
100
AcDbEntity
  8
0
  6
Continuous
 62
     7
370
    15
100
AcDbLine
 10
448.231439222
 20
-1364.9105982798
 30
0.0
 11
443.2462463874
 21
-1364.9105982798
 31
0.0
  0
LINE
  5
2D2
330
1F
100
AcDbEntity
  8
0
  6
Continuous
 62
     7
370
    15
100
AcDbLine
 10
510.5389385673
 20
-1364.9105982798
 30
0.0
 11
517.9458754892
 21
-1364.9105982798
 31
0.0
  0
LINE
  5
2D3
330
1F
100
AcDbEntity
  8
0
  6
Continuous
 62
     7
370
    15
100
AcDbLine
 10
579.1338533599
 20
-1364.9105982798
 30
0.0
 11
587.2644152684
 21
-1364.9105982798
 31
0.0
  0
LINE
  5
2D4
330
1F
100
AcDbEntity
  8
0
  6
Continuous
 62
     7
370
    15
100
AcDbLine
 10
647.2644152684
 20
-1364.9105982798
 30
0.0
 11
655.3949771769
 21
-1364.9105982798
 31
0.0
  0
LINE
  5
2D5
330
1F
100
AcDbEntity
  8
0
  6
Continuous
 62
     7
370
    15
100
AcDbLine
 10
716.5829550475
 20
-1364.9105982798
 30
0.0
 11
723.9898919694
 21
-1364.9105982798
 31
0.0
  0
LINE
  5
2D6
330
1F
100
AcDbEntity
  8
0
  6
Continuous
 62
     7
370
    15
100
AcDbLine
 10
734.6878465835
 20
352.6138762886
 30
0.0
 11
734.7604373291
 21
352.6138762886
 31
0.0
  0
LINE
  5
2D7
330
1F
100
AcDbEntity
  8
0
  6
Continuous
 62
     7
370
    15
100
AcDbLine
 10
744.2644149472
 20
349.7462559697
 30
0.0
 11
730.2644154328
 21
349.7462559697
 31
0.0
  0
LINE
  5
2D8
330
1F
100
AcDbEntity
  8
0
  6
Continuous
 62
     7
370
    15
100
AcDbLine
 10
364.6393084694
 20
-1472.4350728481
 30
0.0
 11
365.320579246
 21
-1472.4350728481
 31
0.0
  0
LINE
  5
2D9
330
1F
100
AcDbEntity
  8
0
  6
Continuous
 62
     7
370
    15
100
AcDbLine
 10
366.3880567475
 20
-1472.4350728481
 30
0.0
 11
365.670579246
 21
-1472.4350728481
 31
0.0
  0
LINE
  5
2DA
330
1F
100
AcDbEntity
  8
0
  6
Continuous
 62
     7
370
    15
100
AcDbLine
 10
369.2082512907
 20
-1472.4350728481
 30
0.0
 11
368.4907737892
 21
-1472.4350728481
 31
0.0
  0
LINE
  5
2DB
330
1F
100
AcDbEntity
  8
0
  6
Continuous
 62
     7
370
    15
100
AcDbLine
 10
370.0846098115
 20
-1472.4350728481
 30
0.0
 11
369.8893929092
 21
-1472.4350728481
 31
0.0
  0
LINE
  5
2DC
330
1F
100
AcDbEntity
  8
0
  6
Continuous
 62
     7
370
    15
100
AcDbLine
 10
360.2644152751
 20
-1469.5674525293
 30
0.0
 11
374.2644147004
 21
-1469.5674525293
 31
0.0
  0
LINE
  5
2DD
330
1F
100
AcDbEntity
  8
0
  6
Continuous
 62
     7
370
    15
100
AcDbLine
 10
855.6878465835
 20
352.6138762886
 30
0.0
 11
855.7604373291
 21
352.6138762886
 31
0.0
  0
LINE
  5
2DE
330
1F
100
AcDbEntity
  8
0
  6
Continuous
 62
     7
370
    15
100
AcDbLine
 10
860.2644152684
 20
349.7462559697
 30
0.0
 11
851.2644154328
 21
349.7462559697
 31
0.0
  0
LINE
  5
2DF
330
1F
100
AcDbEntity
  8
0
  6
Continuous
 62
     7
370
    15
100
AcDbLine
 10
855.6393084694
 20
-1472.4350728481
 30
0.0
 11
856.320579246
 21
-1472.4350728481
 31
0.0
  0
LINE
  5
2E0
330
1F
100
AcDbEntity
  8
0
  6
Continuous
 62
     7
370
    15
100
AcDbLine
 10
857.3880567475
 20
-1472.4350728481
 30
0.0
 11
856.670579246
 21
-1472.4350728481
 31
0.0
  0
LINE
  5
2E1
330
1F
100
AcDbEntity
  8
0
  6
Continuous
 62
     7
370
    15
100
AcDbLine
 10
860.2082512907
 20
-1472.4350728481
 30
0.0
 11
859.4907737892
 21
-1472.4350728481
 31
0.0
  0
LINE
  5
2E2
330
1F
100
AcDbEntity
  8
0
  6
Continuous
 62
     7
370
    15
100
AcDbLine
 10
861.0846098115
 20
-1472.4350728481
 30
0.0
 11
860.8893929092
 21
-1472.4350728481
 31
0.0
  0
LINE
  5
2E3
330
1F
100
AcDbEntity
  8
0
  6
Continuous
 62
     7
370
    15
100
AcDbLine
 10
428.6393084694
 20
-1472.4350728481
 30
0.0
 11
429.320579246
 21
-1472.4350728481
 31
0.0
  0
LINE
  5
2E4
330
1F
100
AcDbEntity
  8
0
  6
Continuous
 62
     7
370
    15
100
AcDbLine
 10
430.3880567475
 20
-1472.4350728481
 30
0.0
 11
429.670579246
 21
-1472.4350728481
 31
0.0
  0
LINE
  5
2E5
330
1F
100
AcDbEntity
  8
0
  6
Continuous
 62
     7
370
    15
100
AcDbLine
 10
433.2082512907
 20
-1472.4350728481
 30
0.0
 11
432.4907737892
 21
-1472.4350728481
 31
0.0
  0
LINE
  5
2E6
330
1F
100
AcDbEntity
  8
0
  6
Continuous
 62
     7
370
    15
100
AcDbLine
 10
434.0846098115
 20
-1472.4350728481
 30
0.0
 11
433.8893929092
 21
-1472.4350728481
 31
0.0
  0
LINE
  5
2E7
330
1F
100
AcDbEntity
  8
0
  6
Continuous
 62
     7
370
    15
100
AcDbLine
 10
424.2644152751
 20
-1469.5674525293
 30
0.0
 11
438.2644147004
 21
-1469.5674525293
 31
0.0
  0
LINE
  5
2E8
330
1F
100
AcDbEntity
  8
0
  6
Continuous
 62
     7
370
    15
100
AcDbLine
 10
494.6878465835
 20
352.6138762886
 30
0.0
 11
494.7604373291
 21
352.6138762886
 31
0.0
  0
LINE
  5
2E9
330
1F
100
AcDbEntity
  8
0
  6
Continuous
 62
     7
370
    15
100
AcDbLine
 10
504.2644149472
 20
349.7462559697
 30
0.0
 11
490.2644154328
 21
349.7462559697
 31
0.0
  0
LINE
  5
2EA
330
1F
100
AcDbEntity
  8
0
  6
Continuous
 62
     7
370
    15
100
AcDbLine
 10
494.6393084694
 20
-1472.4350728481
 30
0.0
 11
495.320579246
 21
-1472.4350728481
 31
0.0
  0
LINE
  5
2EB
330
1F
100
AcDbEntity
  8
0
  6
Continuous
 62
     7
370
    15
100
AcDbLine
 10
496.3880567475
 20
-1472.4350728481
 30
0.0
 11
495.670579246
 21
-1472.4350728481
 31
0.0
  0
LINE
  5
2EC
330
1F
100
AcDbEntity
  8
0
  6
Continuous
 62
     7
370
    15
100
AcDbLine
 10
499.2082512907
 20
-1472.4350728481
 30
0.0
 11
498.4907737892
 21
-1472.4350728481
 31
0.0
  0
LINE
  5
2ED
330
1F
100
AcDbEntity
  8
0
  6
Continuous
 62
     7
370
    15
100
AcDbLine
 10
500.0846098115
 20
-1472.4350728481
 30
0.0
 11
499.8893929092
 21
-1472.4350728481
 31
0.0
  0
LINE
  5
2EE
330
1F
100
AcDbEntity
  8
0
  6
Continuous
 62
     7
370
    15
100
AcDbLine
 10
490.2644152751
 20
-1469.5674525293
 30
0.0
 11
504.2644147004
 21
-1469.5674525293
 31
0.0
  0
LINE
  5
2EF
330
1F
100
AcDbEntity
  8
0
  6
Continuous
 62
     7
370
    15
100
AcDbLine
 10
745.2644152684
 20
348.6894017202
 30
0.0
 11
729.2644152684
 21
348.6894017202
 31
0.0
  0
LINE
  5
2F0
330
1F
100
AcDbEntity
  8
0
  6
Continuous
 62
     7
370
    15
100
AcDbLine
 10
875.2644152684
 20
348.6894017202
 30
0.0
 11
850.2644152684
 21
348.6894017202
 31
0.0
  0
LINE
  5
2F1
330
1F
100
AcDbEntity
  8
0
  6
Continuous
 62
     7
370
    15
100
AcDbLine
 10
423.2644152684
 20
-1468.5105982798
 30
0.0
 11
439.2644152684
 21
-1468.5105982798
 31
0.0
  0
LINE
  5
2F2
330
1F
100
AcDbEntity
  8
0
  6
Continuous
 62
     7
370
    15
100
AcDbLine
 10
505.2644152684
 20
348.6894017202
 30
0.0
 11
489.2644152684
 21
348.6894017202
 31
0.0
  0
LINE
  5
2F3
330
1F
100
AcDbEntity
  8
0
  6
Continuous
 62
     7
370
    15
100
AcDbLine
 10
489.2644152684
 20
-1468.5105982798
 30
0.0
 11
505.2644152684
 21
-1468.5105982798
 31
0.0
  0
LINE
  5
2F4
330
1F
100
AcDbEntity
  8
0
  6
Continuous
 62
     7
370
    15
100
AcDbLine
 10
600.7644152684
 20
-1466.9105982798
 30
0.0
 11
600.7644152684
 21
-1470.9105982798
 31
0.0
  0
LINE
  5
2F5
330
1F
100
AcDbEntity
  8
0
  6
Continuous
 62
     7
370
    15
100
AcDbLine
 10
633.7644152684
 20
-1470.9105982798
 30
0.0
 11
600.7644152684
 21
-1470.9105982798
 31
0.0
  0
LINE
  5
2F6
330
1F
100
AcDbEntity
  8
0
  6
Continuous
 62
     7
370
    15
100
AcDbLine
 10
633.7644152684
 20
-1470.9105982798
 30
0.0
 11
633.7644152684
 21
-1466.9105982798
 31
0.0
  0
LINE
  5
2F7
330
1F
100
AcDbEntity
  8
0
  6
Continuous
 62
     7
370
    15
100
AcDbLine
 10
605.2644152684
 20
-1484.9105982798
 30
0.0
 11
629.2644152684
 21
-1484.9105982798
 31
0.0
  0
LINE
  5
2F8
330
1F
100
AcDbEntity
  8
0
  6
Continuous
 62
     7
370
    15
100
AcDbLine
 10
606.2644152684
 20
-1485.9105982798
 30
0.0
 11
628.2644152684
 21
-1485.9105982798
 31
0.0
  0
LINE
  5
2F9
330
1F
100
AcDbEntity
  8
0
  6
Continuous
 62
     7
370
    15
100
AcDbLine
 10
633.7644152684
 20
347.0894017202
 30
0.0
 11
633.7644152684
 21
351.0894017202
 31
0.0
  0
LINE
  5
2FA
330
1F
100
AcDbEntity
  8
0
  6
Continuous
 62
     7
370
    15
100
AcDbLine
 10
600.7644152684
 20
351.0894017202
 30
0.0
 11
633.7644152684
 21
351.0894017202
 31
0.0
  0
LINE
  5
2FB
330
1F
100
AcDbEntity
  8
0
  6
Continuous
 62
     7
370
    15
100
AcDbLine
 10
600.7644152684
 20
351.0894017202
 30
0.0
 11
600.7644152684
 21
347.0894017202
 31
0.0
  0
LINE
  5
2FC
330
1F
100
AcDbEntity
  8
0
  6
Continuous
 62
     7
370
    15
100
AcDbLine
 10
629.2644152684
 20
365.0894017202
 30
0.0
 11
605.2644152684
 21
365.0894017202
 31
0.0
  0
LINE
  5
2FD
330
1F
100
AcDbEntity
  8
0
  6
Continuous
 62
     7
370
    15
100
AcDbLine
 10
628.2644152684
 20
366.0894017202
 30
0.0
 11
606.2644152684
 21
366.0894017202
 31
0.0
  0
LINE
  5
2FE
330
1F
100
AcDbEntity
  8
0
  6
Continuous
 62
     7
370
    15
100
AcDbLine
 10
510.5267588186
 20
340.0894017202
 30
0.0
 11
448.231439222
 21
340.0894017202
 31
0.0
  0
LINE
  5
2FF
330
1F
100
AcDbEntity
  8
0
  6
Continuous
 62
     7
370
    15
100
AcDbLine
 10
510.5267588186
 20
-1459.9105982798
 30
0.0
 11
448.231439222
 21
-1459.9105982798
 31
0.0
  0
LINE
  5
300
330
1F
100
AcDbEntity
  8
0
  6
Continuous
 62
     7
370
    15
100
AcDbLine
 10
448.231439222
 20
340.0894017202
 30
0.0
 11
448.231439222
 21
-1459.9105982798
 31
0.0
  0
LINE
  5
301
330
1F
100
AcDbEntity
  8
0
  6
Continuous
 62
     7
370
    15
100
AcDbLine
 10
443.2462463874
 20
-1459.9105982798
 30
0.0
 11
300.9533068911
 21
-1459.9105982798
 31
0.0
  0
LINE
  5
302
330
1F
100
AcDbEntity
  8
0
  6
Continuous
 62
     7
370
    15
100
AcDbLine
 10
443.2462463874
 20
340.0894017202
 30
0.0
 11
300.9533068911
 21
340.0894017202
 31
0.0
  0
LINE
  5
303
330
1F
100
AcDbEntity
  8
0
  6
Continuous
 62
     7
370
    15
100
AcDbLine
 10
359.2644152684
 20
-1468.5105982798
 30
0.0
 11
384.2644152684
 21
-1468.5105982798
 31
0.0
  0
LINE
  5
304
330
1F
100
AcDbEntity
  8
0
  6
Continuous
 62
     7
370
    15
100
AcDbLine
 10
439.2644152684
 20
348.6894017202
 30
0.0
 11
423.2644152684
 21
348.6894017202
 31
0.0
  0
LINE
  5
305
330
1F
100
AcDbEntity
  8
0
  6
Continuous
 62
     7
370
    15
100
AcDbLine
 10
384.2644152684
 20
348.6894017202
 30
0.0
 11
359.2644152684
 21
348.6894017202
 31
0.0
  0
LINE
  5
306
330
1F
100
AcDbEntity
  8
0
  6
Continuous
 62
     7
370
    15
100
AcDbLine
 10
729.2644152684
 20
-1468.5105982798
 30
0.0
 11
745.2644152684
 21
-1468.5105982798
 31
0.0
  0
LINE
  5
307
330
1F
100
AcDbEntity
  8
0
  6
Continuous
 62
     7
370
    15
100
AcDbLine
 10
850.2644152684
 20
-1468.5105982798
 30
0.0
 11
875.2644152684
 21
-1468.5105982798
 31
0.0
  0
LINE
  5
308
330
1F
100
AcDbEntity
  8
0
  6
Continuous
 62
     7
370
    15
100
AcDbLine
 10
811.2644152684
 20
348.6894017202
 30
0.0
 11
795.2644152684
 21
348.6894017202
 31
0.0
  0
LINE
  5
309
330
1F
100
AcDbEntity
  8
0
  6
Continuous
 62
     7
370
    15
100
AcDbLine
 10
795.2644152684
 20
-1468.5105982798
 30
0.0
 11
811.2644152684
 21
-1468.5105982798
 31
0.0
  0
LINE
  5
30A
330
1F
100
AcDbEntity
  8
0
  6
Continuous
 62
     7
370
    15
100
AcDbLine
 10
579.130807495
 20
340.0894017202
 30
0.0
 11
517.9458754892
 21
340.0894017202
 31
0.0
  0
LINE
  5
30B
330
1F
100
AcDbEntity
  8
0
  6
Continuous
 62
     7
370
    15
100
AcDbLine
 10
579.130807495
 20
-1459.9105982798
 30
0.0
 11
517.9458754892
 21
-1459.9105982798
 31
0.0
  0
LINE
  5
30C
330
1F
100
AcDbEntity
  8
0
  6
Continuous
 62
     7
370
    15
100
AcDbLine
 10
517.9458754892
 20
340.0894017202
 30
0.0
 11
517.9458754892
 21
-1459.9105982798
 31
0.0
  0
LINE
  5
30D
330
1F
100
AcDbEntity
  8
0
  6
Continuous
 62
     7
370
    15
100
AcDbLine
 10
920.0870454147
 20
-1464.9105982798
 30
0.0
 11
314.4417851221
 21
-1464.9105982798
 31
0.0
  0
LINE
  5
30E
330
1F
100
AcDbEntity
  8
0
  6
Continuous
 62
     7
370
    15
100
AcDbLine
 10
920.0870454147
 20
-1466.9105982798
 30
0.0
 11
314.4417851221
 21
-1466.9105982798
 31
0.0
  0
LINE
  5
30F
330
1F
100
AcDbEntity
  8
0
  6
Continuous
 62
     7
370
    15
100
AcDbLine
 10
920.0870454147
 20
347.0894017202
 30
0.0
 11
314.4417851221
 21
347.0894017202
 31
0.0
  0
LINE
  5
310
330
1F
100
AcDbEntity
  8
0
  6
Continuous
 62
     7
370
    15
100
AcDbLine
 10
920.0870454147
 20
345.0894017202
 30
0.0
 11
314.4417851221
 21
345.0894017202
 31
0.0
  0
LINE
  5
311
330
1F
100
AcDbEntity
  8
0
  6
Continuous
 62
     7
370
    15
100
AcDbLine
 10
587.2644152684
 20
340.0894017202
 30
0.0
 11
592.2644152684
 21
335.0894017202
 31
0.0
  0
LINE
  5
312
330
1F
100
AcDbEntity
  8
0
  6
Continuous
 62
     7
370
    15
100
AcDbLine
 10
587.2644152684
 20
340.0894017202
 30
0.0
 11
647.2644152684
 21
340.0894017202
 31
0.0
  0
LINE
  5
313
330
1F
100
AcDbEntity
  8
0
  6
Continuous
 62
     7
370
    15
100
AcDbLine
 10
642.2644152684
 20
335.0894017202
 30
0.0
 11
647.2644152684
 21
340.0894017202
 31
0.0
  0
LINE
  5
314
330
1F
100
AcDbEntity
  8
0
  6
Continuous
 62
     7
370
    15
100
AcDbLine
 10
587.2644152684
 20
340.0894017202
 30
0.0
 11
587.2644152684
 21
-1459.9105982798
 31
0.0
  0
LINE
  5
315
330
1F
100
AcDbEntity
  8
0
  6
Continuous
 62
     7
370
    15
100
AcDbLine
 10
592.2644152684
 20
-1454.9105982798
 30
0.0
 11
587.2644152684
 21
-1459.9105982798
 31
0.0
  0
LINE
  5
316
330
1F
100
AcDbEntity
  8
0
  6
Continuous
 62
     7
370
    15
100
AcDbLine
 10
587.2644152684
 20
-1459.9105982798
 30
0.0
 11
647.2644152684
 21
-1459.9105982798
 31
0.0
  0
LINE
  5
317
330
1F
100
AcDbEntity
  8
0
  6
Continuous
 62
     7
370
    15
100
AcDbLine
 10
642.2644152684
 20
-1454.9105982798
 30
0.0
 11
647.2644152684
 21
-1459.9105982798
 31
0.0
  0
LINE
  5
318
330
1F
100
AcDbEntity
  8
0
  6
Continuous
 62
     7
370
    15
100
AcDbLine
 10
647.2644152684
 20
-1459.9105982798
 30
0.0
 11
647.2644152684
 21
340.0894017202
 31
0.0
  0
LINE
  5
319
330
1F
100
AcDbEntity
  8
0
  6
Continuous
 62
     7
370
    15
100
AcDbLine
 10
655.3980230418
 20
-1459.9105982798
 30
0.0
 11
716.5829550475
 21
-1459.9105982798
 31
0.0
  0
LINE
  5
31A
330
1F
100
AcDbEntity
  8
0
  6
Continuous
 62
     7
370
    15
100
AcDbLine
 10
655.3980230418
 20
340.0894017202
 30
0.0
 11
716.5829550475
 21
340.0894017202
 31
0.0
  0
LINE
  5
31B
330
1F
100
AcDbEntity
  8
0
  6
Continuous
 62
     7
370
    15
100
AcDbLine
 10
716.5829550475
 20
-1459.9105982798
 30
0.0
 11
716.5829550475
 21
340.0894017202
 31
0.0
  0
LINE
  5
31C
330
1F
100
AcDbEntity
  8
0
  6
Continuous
 62
     7
370
    15
100
AcDbLine
 10
724.0020717181
 20
-1459.9105982798
 30
0.0
 11
786.2973913148
 21
-1459.9105982798
 31
0.0
  0
LINE
  5
31D
330
1F
100
AcDbEntity
  8
0
  6
Continuous
 62
     7
370
    15
100
AcDbLine
 10
724.0020717181
 20
340.0894017202
 30
0.0
 11
786.2973913148
 21
340.0894017202
 31
0.0
  0
LINE
  5
31E
330
1F
100
AcDbEntity
  8
0
  6
Continuous
 62
     7
370
    15
100
AcDbLine
 10
786.2973913148
 20
-1459.9105982798
 30
0.0
 11
786.2973913148
 21
340.0894017202
 31
0.0
  0
LINE
  5
31F
330
1F
100
AcDbEntity
  8
0
  6
Continuous
 62
     7
370
    15
100
AcDbLine
 10
791.2825841494
 20
340.0894017202
 30
0.0
 11
791.2825841494
 21
-1459.9105982798
 31
0.0
  0
LINE
  5
320
330
1F
100
AcDbEntity
  8
0
  6
Continuous
 62
     7
370
    15
100
AcDbLine
 10
791.2825841494
 20
340.0894017202
 30
0.0
 11
933.5755236456
 21
340.0894017202
 31
0.0
  0
LINE
  5
321
330
1F
100
AcDbEntity
  8
0
  6
Continuous
 62
     7
370
    15
100
AcDbLine
 10
791.2825841494
 20
-1459.9105982798
 30
0.0
 11
933.5755236456
 21
-1459.9105982798
 31
0.0
  0
LINE
  5
322
330
1F
100
AcDbEntity
  8
0
  6
Continuous
 62
     7
370
    15
100
AcDbLine
 10
443.2462463874
 20
-1459.9105982798
 30
0.0
 11
443.2462463874
 21
340.0894017202
 31
0.0
  0
LINE
  5
323
330
1F
100
AcDbEntity
  8
0
  6
PHANTOM
 62
     8
370
     0
100
AcDbLine
 10
340.1091706103
 20
345.0894017202
 30
0.0
 11
340.1091706103
 21
340.0894017202
 31
0.0
  0
LINE
  5
324
330
1F
100
AcDbEntity
  8
0
  6
PHANTOM
 62
     8
370
     0
100
AcDbLine
 10
455.1387322526
 20
340.0894017202
 30
0.0
 11
455.1387322526
 21
345.0894017202
 31
0.0
  0
LINE
  5
325
330
1F
100
AcDbEntity
  8
0
  6
PHANTOM
 62
     8
370
     0
100
AcDbLine
 10
779.3900982841
 20
345.0894017202
 30
0.0
 11
779.3900982841
 21
340.0894017202
 31
0.0
  0
LINE
  5
326
330
1F
100
AcDbEntity
  8
0
  6
PHANTOM
 62
     8
370
     0
100
AcDbLine
 10
894.4196599264
 20
345.0894017202
 30
0.0
 11
894.4196599264
 21
340.0894017202
 31
0.0
  0
LINE
  5
327
330
1F
100
AcDbEntity
  8
0
  6
PHANTOM
 62
     8
370
     0
100
AcDbLine
 10
894.4196599264
 20
-1464.9105982798
 30
0.0
 11
894.4196599264
 21
-1459.9105982798
 31
0.0
  0
LINE
  5
328
330
1F
100
AcDbEntity
  8
0
  6
PHANTOM
 62
     8
370
     0
100
AcDbLine
 10
779.3900982841
 20
-1459.9105982798
 30
0.0
 11
779.3900982841
 21
-1464.9105982798
 31
0.0
  0
LINE
  5
329
330
1F
100
AcDbEntity
  8
0
  6
PHANTOM
 62
     8
370
     0
100
AcDbLine
 10
455.1387322526
 20
-1464.9105982798
 30
0.0
 11
455.1387322526
 21
-1459.9105982798
 31
0.0
  0
LINE
  5
32A
330
1F
100
AcDbEntity
  8
0
  6
PHANTOM
 62
     8
370
     0
100
AcDbLine
 10
340.1091706103
 20
-1464.9105982798
 30
0.0
 11
340.1091706103
 21
-1459.9105982798
 31
0.0
  0
LINE
  5
32B
330
1F
100
AcDbEntity
  8
0
  6
PHANTOM
 62
     8
370
     0
100
AcDbLine
 10
603.7644152684
 20
-1470.9105982798
 30
0.0
 11
603.7644152684
 21
-1466.9105982798
 31
0.0
  0
LINE
  5
32C
330
1F
100
AcDbEntity
  8
0
  6
PHANTOM
 62
     8
370
     0
100
AcDbLine
 10
630.7644152684
 20
-1466.9105982798
 30
0.0
 11
630.7644152684
 21
-1470.9105982798
 31
0.0
  0
LINE
  5
32D
330
1F
100
AcDbEntity
  8
0
  6
PHANTOM
 62
     8
370
     0
100
AcDbLine
 10
629.2644152684
 20
-1471.9105982798
 30
0.0
 11
605.2644152684
 21
-1471.9105982798
 31
0.0
  0
LINE
  5
32E
330
1F
100
AcDbEntity
  8
0
  6
PHANTOM
 62
     8
370
     0
100
AcDbLine
 10
630.7644152684
 20
351.0894017202
 30
0.0
 11
630.7644152684
 21
347.0894017202
 31
0.0
  0
LINE
  5
32F
330
1F
100
AcDbEntity
  8
0
  6
PHANTOM
 62
     8
370
     0
100
AcDbLine
 10
603.7644152684
 20
347.0894017202
 30
0.0
 11
603.7644152684
 21
351.0894017202
 31
0.0
  0
LINE
  5
330
330
1F
100
AcDbEntity
  8
0
  6
PHANTOM
 62
     8
370
     0
100
AcDbLine
 10
605.2644152684
 20
352.0894017202
 30
0.0
 11
629.2644152684
 21
352.0894017202
 31
0.0
  0
LINE
  5
331
330
1F
100
AcDbEntity
  8
0
  6
PHANTOM
 62
     8
370
     0
100
AcDbLine
 10
456.009518423
 20
335.0894017202
 30
0.0
 11
505.887720936
 21
335.0894017202
 31
0.0
  0
LINE
  5
332
330
1F
100
AcDbEntity
  8
0
  6
PHANTOM
 62
     8
370
     0
100
AcDbLine
 10
450.672915803
 20
340.0894017202
 30
0.0
 11
450.672915803
 21
-1459.9105982798
 31
0.0
  0
LINE
  5
333
330
1F
100
AcDbEntity
  8
0
  6
PHANTOM
 62
     8
370
     0
100
AcDbLine
 10
456.009518423
 20
-1454.9105982798
 30
0.0
 11
456.009518423
 21
335.0894017202
 31
0.0
  0
LINE
  5
334
330
1F
100
AcDbEntity
  8
0
  6
PHANTOM
 62
     8
370
     0
100
AcDbLine
 10
505.887720936
 20
-1454.9105982798
 30
0.0
 11
456.009518423
 21
-1454.9105982798
 31
0.0
  0
LINE
  5
335
330
1F
100
AcDbEntity
  8
0
  6
PHANTOM
 62
     8
370
     0
100
AcDbLine
 10
505.887720936
 20
335.0894017202
 30
0.0
 11
505.887720936
 21
-1454.9105982798
 31
0.0
  0
LINE
  5
336
330
1F
100
AcDbEntity
  8
0
  6
PHANTOM
 62
     8
370
     0
100
AcDbLine
 10
356.4979984407
 20
-1459.9105982798
 30
0.0
 11
356.4979984407
 21
340.0894017202
 31
0.0
  0
LINE
  5
337
330
1F
100
AcDbEntity
  8
0
  6
PHANTOM
 62
     8
370
     0
100
AcDbLine
 10
349.4538381767
 20
335.0894017202
 30
0.0
 11
349.4538381767
 21
-1454.9105982798
 31
0.0
  0
LINE
  5
338
330
1F
100
AcDbEntity
  8
0
  6
PHANTOM
 62
     8
370
     0
100
AcDbLine
 10
349.4538381767
 20
-1454.9105982798
 30
0.0
 11
317.3144576923
 21
-1454.9105982798
 31
0.0
  0
LINE
  5
339
330
1F
100
AcDbEntity
  8
0
  6
PHANTOM
 62
     8
370
     0
100
AcDbLine
 10
317.3144576923
 20
335.0894017202
 30
0.0
 11
349.4538381767
 21
335.0894017202
 31
0.0
  0
LINE
  5
33A
330
1F
100
AcDbEntity
  8
0
  6
PHANTOM
 62
     8
370
     0
100
AcDbLine
 10
317.3144576923
 20
-1454.9105982798
 30
0.0
 11
317.3144576923
 21
335.0894017202
 31
0.0
  0
LINE
  5
33B
330
1F
100
AcDbEntity
  8
0
  6
PHANTOM
 62
     8
370
     0
100
AcDbLine
 10
303.6564871002
 20
-1454.9105982798
 30
0.0
 11
296.6978320522
 21
-1454.9105982798
 31
0.0
  0
LINE
  5
33C
330
1F
100
AcDbEntity
  8
0
  6
PHANTOM
 62
     8
370
     0
100
AcDbLine
 10
296.6978320522
 20
335.0894017202
 30
0.0
 11
303.6564871002
 21
335.0894017202
 31
0.0
  0
LINE
  5
33D
330
1F
100
AcDbEntity
  8
0
  6
PHANTOM
 62
     8
370
     0
100
AcDbLine
 10
309.3036929487
 20
-1459.9105982798
 30
0.0
 11
309.3036929487
 21
340.0894017202
 31
0.0
  0
LINE
  5
33E
330
1F
100
AcDbEntity
  8
0
  6
PHANTOM
 62
     8
370
     0
100
AcDbLine
 10
303.6564871002
 20
335.0894017202
 30
0.0
 11
303.6564871002
 21
-1454.9105982798
 31
0.0
  0
LINE
  5
33F
330
1F
100
AcDbEntity
  8
0
  6
PHANTOM
 62
     8
370
     0
100
AcDbLine
 10
296.6978320522
 20
-1454.9105982798
 30
0.0
 11
296.6978320522
 21
335.0894017202
 31
0.0
  0
LINE
  5
340
330
1F
100
AcDbEntity
  8
0
  6
PHANTOM
 62
     8
370
     0
100
AcDbLine
 10
519.1673578738
 20
340.0894017202
 30
0.0
 11
519.1673578738
 21
-1459.9105982798
 31
0.0
  0
LINE
  5
341
330
1F
100
AcDbEntity
  8
0
  6
PHANTOM
 62
     8
370
     0
100
AcDbLine
 10
524.3388094924
 20
-1454.9105982798
 30
0.0
 11
524.3388094924
 21
335.0894017202
 31
0.0
  0
LINE
  5
342
330
1F
100
AcDbEntity
  8
0
  6
PHANTOM
 62
     8
370
     0
100
AcDbLine
 10
524.3388094924
 20
335.0894017202
 30
0.0
 11
574.3083508434
 21
335.0894017202
 31
0.0
  0
LINE
  5
343
330
1F
100
AcDbEntity
  8
0
  6
PHANTOM
 62
     8
370
     0
100
AcDbLine
 10
574.3083508434
 20
-1454.9105982798
 30
0.0
 11
524.3388094924
 21
-1454.9105982798
 31
0.0
  0
LINE
  5
344
330
1F
100
AcDbEntity
  8
0
  6
PHANTOM
 62
     8
370
     0
100
AcDbLine
 10
574.3083508434
 20
335.0894017202
 30
0.0
 11
574.3083508434
 21
-1454.9105982798
 31
0.0
  0
LINE
  5
345
330
1F
100
AcDbEntity
  8
0
  6
PHANTOM
 62
     8
370
     0
100
AcDbLine
 10
456.9729136148
 20
-1466.9105982798
 30
0.0
 11
456.9729136148
 21
-1464.9105982798
 31
0.0
  0
LINE
  5
346
330
1F
100
AcDbEntity
  8
0
  6
PHANTOM
 62
     8
370
     0
100
AcDbLine
 10
317.2173714326
 20
-1466.9105982798
 30
0.0
 11
317.2173714326
 21
-1464.9105982798
 31
0.0
  0
LINE
  5
347
330
1F
100
AcDbEntity
  8
0
  6
PHANTOM
 62
     8
370
     0
100
AcDbLine
 10
917.3114591041
 20
-1466.9105982798
 30
0.0
 11
917.3114591041
 21
-1464.9105982798
 31
0.0
  0
LINE
  5
348
330
1F
100
AcDbEntity
  8
0
  6
PHANTOM
 62
     8
370
     0
100
AcDbLine
 10
777.5559169219
 20
-1464.9105982798
 30
0.0
 11
777.5559169219
 21
-1466.9105982798
 31
0.0
  0
LINE
  5
349
330
1F
100
AcDbEntity
  8
0
  6
PHANTOM
 62
     8
370
     0
100
AcDbLine
 10
456.9729136148
 20
345.0894017202
 30
0.0
 11
456.9729136148
 21
347.0894017202
 31
0.0
  0
LINE
  5
34A
330
1F
100
AcDbEntity
  8
0
  6
PHANTOM
 62
     8
370
     0
100
AcDbLine
 10
317.2173714326
 20
345.0894017202
 30
0.0
 11
317.2173714326
 21
347.0894017202
 31
0.0
  0
LINE
  5
34B
330
1F
100
AcDbEntity
  8
0
  6
PHANTOM
 62
     8
370
     0
100
AcDbLine
 10
917.3114591041
 20
345.0894017202
 30
0.0
 11
917.3114591041
 21
347.0894017202
 31
0.0
  0
LINE
  5
34C
330
1F
100
AcDbEntity
  8
0
  6
PHANTOM
 62
     8
370
     0
100
AcDbLine
 10
777.5559169219
 20
347.0894017202
 30
0.0
 11
777.5559169219
 21
345.0894017202
 31
0.0
  0
LINE
  5
34D
330
1F
100
AcDbEntity
  8
0
  6
PHANTOM
 62
     8
370
     0
100
AcDbLine
 10
592.2644152684
 20
335.0894017202
 30
0.0
 11
642.2644152684
 21
335.0894017202
 31
0.0
  0
LINE
  5
34E
330
1F
100
AcDbEntity
  8
0
  6
PHANTOM
 62
     8
370
     0
100
AcDbLine
 10
592.2644152684
 20
-1454.9105982798
 30
0.0
 11
592.2644152684
 21
335.0894017202
 31
0.0
  0
LINE
  5
34F
330
1F
100
AcDbEntity
  8
0
  6
PHANTOM
 62
     8
370
     0
100
AcDbLine
 10
642.2644152684
 20
-1454.9105982798
 30
0.0
 11
592.2644152684
 21
-1454.9105982798
 31
0.0
  0
LINE
  5
350
330
1F
100
AcDbEntity
  8
0
  6
PHANTOM
 62
     8
370
     0
100
AcDbLine
 10
642.2644152684
 20
335.0894017202
 30
0.0
 11
642.2644152684
 21
-1454.9105982798
 31
0.0
  0
LINE
  5
351
330
1F
100
AcDbEntity
  8
0
  6
PHANTOM
 62
     8
370
     0
100
AcDbLine
 10
710.1900210443
 20
-1454.9105982798
 30
0.0
 11
660.2204796933
 21
-1454.9105982798
 31
0.0
  0
LINE
  5
352
330
1F
100
AcDbEntity
  8
0
  6
PHANTOM
 62
     8
370
     0
100
AcDbLine
 10
660.2204796933
 20
335.0894017202
 30
0.0
 11
710.1900210443
 21
335.0894017202
 31
0.0
  0
LINE
  5
353
330
1F
100
AcDbEntity
  8
0
  6
PHANTOM
 62
     8
370
     0
100
AcDbLine
 10
715.3614726629
 20
-1459.9105982798
 30
0.0
 11
715.3614726629
 21
340.0894017202
 31
0.0
  0
LINE
  5
354
330
1F
100
AcDbEntity
  8
0
  6
PHANTOM
 62
     8
370
     0
100
AcDbLine
 10
710.1900210443
 20
335.0894017202
 30
0.0
 11
710.1900210443
 21
-1454.9105982798
 31
0.0
  0
LINE
  5
355
330
1F
100
AcDbEntity
  8
0
  6
PHANTOM
 62
     8
370
     0
100
AcDbLine
 10
660.2204796933
 20
-1454.9105982798
 30
0.0
 11
660.2204796933
 21
335.0894017202
 31
0.0
  0
LINE
  5
356
330
1F
100
AcDbEntity
  8
0
  6
PHANTOM
 62
     8
370
     0
100
AcDbLine
 10
778.5193121137
 20
-1454.9105982798
 30
0.0
 11
728.6411096007
 21
-1454.9105982798
 31
0.0
  0
LINE
  5
357
330
1F
100
AcDbEntity
  8
0
  6
PHANTOM
 62
     8
370
     0
100
AcDbLine
 10
783.8559147337
 20
-1459.9105982798
 30
0.0
 11
783.8559147337
 21
340.0894017202
 31
0.0
  0
LINE
  5
358
330
1F
100
AcDbEntity
  8
0
  6
PHANTOM
 62
     8
370
     0
100
AcDbLine
 10
778.5193121137
 20
335.0894017202
 30
0.0
 11
778.5193121137
 21
-1454.9105982798
 31
0.0
  0
LINE
  5
359
330
1F
100
AcDbEntity
  8
0
  6
PHANTOM
 62
     8
370
     0
100
AcDbLine
 10
728.6411096007
 20
335.0894017202
 30
0.0
 11
778.5193121137
 21
335.0894017202
 31
0.0
  0
LINE
  5
35A
330
1F
100
AcDbEntity
  8
0
  6
PHANTOM
 62
     8
370
     0
100
AcDbLine
 10
728.6411096007
 20
-1454.9105982798
 30
0.0
 11
728.6411096007
 21
335.0894017202
 31
0.0
  0
LINE
  5
35B
330
1F
100
AcDbEntity
  8
0
  6
PHANTOM
 62
     8
370
     0
100
AcDbLine
 10
856.1325714419
 20
-1454.9105982798
 30
0.0
 11
808.7163886816
 21
-1454.9105982798
 31
0.0
  0
LINE
  5
35C
330
1F
100
AcDbEntity
  8
0
  6
PHANTOM
 62
     8
370
     0
100
AcDbLine
 10
802.3882471236
 20
340.0894017202
 30
0.0
 11
802.3882471236
 21
-1459.9105982798
 31
0.0
  0
LINE
  5
35D
330
1F
100
AcDbEntity
  8
0
  6
PHANTOM
 62
     8
370
     0
100
AcDbLine
 10
808.7163886816
 20
-1454.9105982798
 30
0.0
 11
808.7163886816
 21
335.0894017202
 31
0.0
  0
LINE
  5
35E
330
1F
100
AcDbEntity
  8
0
  6
PHANTOM
 62
     8
370
     0
100
AcDbLine
 10
808.7163886816
 20
335.0894017202
 30
0.0
 11
856.1325714419
 21
335.0894017202
 31
0.0
  0
LINE
  5
35F
330
1F
100
AcDbEntity
  8
0
  6
PHANTOM
 62
     8
370
     0
100
AcDbLine
 10
856.1325714419
 20
335.0894017202
 30
0.0
 11
856.1325714419
 21
-1454.9105982798
 31
0.0
  0
LINE
  5
360
330
1F
100
AcDbEntity
  8
0
  6
PHANTOM
 62
     8
370
     0
100
AcDbLine
 10
885.0749923601
 20
335.0894017202
 30
0.0
 11
917.2143728444
 21
335.0894017202
 31
0.0
  0
LINE
  5
361
330
1F
100
AcDbEntity
  8
0
  6
PHANTOM
 62
     8
370
     0
100
AcDbLine
 10
917.2143728444
 20
-1454.9105982798
 30
0.0
 11
885.0749923601
 21
-1454.9105982798
 31
0.0
  0
LINE
  5
362
330
1F
100
AcDbEntity
  8
0
  6
PHANTOM
 62
     8
370
     0
100
AcDbLine
 10
878.030832096
 20
340.0894017202
 30
0.0
 11
878.030832096
 21
-1459.9105982798
 31
0.0
  0
LINE
  5
363
330
1F
100
AcDbEntity
  8
0
  6
PHANTOM
 62
     8
370
     0
100
AcDbLine
 10
885.0749923601
 20
-1454.9105982798
 30
0.0
 11
885.0749923601
 21
335.0894017202
 31
0.0
  0
LINE
  5
364
330
1F
100
AcDbEntity
  8
0
  6
PHANTOM
 62
     8
370
     0
100
AcDbLine
 10
917.2143728444
 20
335.0894017202
 30
0.0
 11
917.2143728444
 21
-1454.9105982798
 31
0.0
  0
LINE
  5
365
330
1F
100
AcDbEntity
  8
0
  6
PHANTOM
 62
     8
370
     0
100
AcDbLine
 10
925.225137588
 20
340.0894017202
 30
0.0
 11
925.225137588
 21
-1459.9105982798
 31
0.0
  0
LINE
  5
366
330
1F
100
AcDbEntity
  8
0
  6
PHANTOM
 62
     8
370
     0
100
AcDbLine
 10
930.8723434365
 20
-1454.9105982798
 30
0.0
 11
930.8723434365
 21
335.0894017202
 31
0.0
  0
LINE
  5
367
330
1F
100
AcDbEntity
  8
0
  6
PHANTOM
 62
     8
370
     0
100
AcDbLine
 10
930.8723434365
 20
335.0894017202
 30
0.0
 11
937.8309984845
 21
335.0894017202
 31
0.0
  0
LINE
  5
368
330
1F
100
AcDbEntity
  8
0
  6
PHANTOM
 62
     8
370
     0
100
AcDbLine
 10
937.8309984845
 20
-1454.9105982798
 30
0.0
 11
930.8723434365
 21
-1454.9105982798
 31
0.0
  0
LINE
  5
369
330
1F
100
AcDbEntity
  8
0
  6
PHANTOM
 62
     8
370
     0
100
AcDbLine
 10
937.8309984845
 20
335.0894017202
 30
0.0
 11
937.8309984845
 21
-1454.9105982798
 31
0.0
  0
LINE
  5
36A
330
1F
100
AcDbEntity
  8
0
  6
PHANTOM
 62
     8
370
     0
100
AcDbLine
 10
378.3962590948
 20
335.0894017202
 30
0.0
 11
425.8124418551
 21
335.0894017202
 31
0.0
  0
LINE
  5
36B
330
1F
100
AcDbEntity
  8
0
  6
PHANTOM
 62
     8
370
     0
100
AcDbLine
 10
432.1405834132
 20
-1459.9105982798
 30
0.0
 11
432.1405834132
 21
340.0894017202
 31
0.0
  0
LINE
  5
36C
330
1F
100
AcDbEntity
  8
0
  6
PHANTOM
 62
     8
370
     0
100
AcDbLine
 10
425.8124418551
 20
335.0894017202
 30
0.0
 11
425.8124418551
 21
-1454.9105982798
 31
0.0
  0
LINE
  5
36D
330
1F
100
AcDbEntity
  8
0
  6
PHANTOM
 62
     8
370
     0
100
AcDbLine
 10
425.8124418551
 20
-1454.9105982798
 30
0.0
 11
378.3962590948
 21
-1454.9105982798
 31
0.0
  0
LINE
  5
36E
330
1F
100
AcDbEntity
  8
0
  6
PHANTOM
 62
     8
370
     0
100
AcDbLine
 10
378.3962590948
 20
-1454.9105982798
 30
0.0
 11
378.3962590948
 21
335.0894017202
 31
0.0
  0
ARC
  5
36F
330
1F
100
AcDbEntity
  8
0
  6
Continuous
 62
     7
370
    15
100
AcDbCircle
 10
630.2644152684
 20
-1471.9105982798
 30
0.0
 40
1.0
100
AcDbArc
 50
90.0
 51
180.0
  0
ARC
  5
370
330
1F
100
AcDbEntity
  8
0
  6
Continuous
 62
     7
370
    15
100
AcDbCircle
 10
604.2644152684
 20
-1471.9105982798
 30
0.0
 40
1.000000000000227
100
AcDbArc
 50
0.0
 51
90.0
  0
ARC
  5
371
330
1F
100
AcDbEntity
  8
0
  6
Continuous
 62
     7
370
    15
100
AcDbCircle
 10
604.2644152684
 20
352.0894017202
 30
0.0
 40
0.9999999999998863
100
AcDbArc
 50
270.0
 51
0.0
  0
ARC
  5
372
330
1F
100
AcDbEntity
  8
0
  6
Continuous
 62
     7
370
    15
100
AcDbCircle
 10
630.2644152684
 20
352.0894017202
 30
0.0
 40
0.9999999999998863
100
AcDbArc
 50
180.0
 51
270.0
  0
ARC
  5
373
330
1F
100
AcDbEntity
  8
0
  6
Continuous
 62
     7
370
    15
100
AcDbCircle
 10
475.7162132248
 20
367.7348224172
 30
0.0
 40
44.45270936686187
100
AcDbArc
 50
312.744691407
 51
321.5445222398
  0
ARC
  5
374
330
1F
100
AcDbEntity
  8
0
  6
Continuous
 62
     7
370
    15
100
AcDbCircle
 10
415.66539933
 20
297.3772281417
 30
0.0
 40
55.22550118748337
100
AcDbArc
 50
43.0688006861
 51
50.6614572072
  0
ARC
  5
375
330
1F
100
AcDbEntity
  8
0
  6
Continuous
 62
     7
370
    15
100
AcDbCircle
 10
415.6653993299
 20
-1417.1984247013
 30
0.0
 40
55.22550118753323
100
AcDbArc
 50
309.3385427928
 51
316.9311993139
  0
ARC
  5
376
330
1F
100
AcDbEntity
  8
0
  6
Continuous
 62
     7
370
    15
100
AcDbCircle
 10
475.7162132248
 20
-1487.5560189768
 30
0.0
 40
44.45270936689808
100
AcDbArc
 50
38.4554777602
 51
47.255308593
  0
ARC
  5
377
330
1F
100
AcDbEntity
  8
0
  6
Continuous
 62
     7
370
    15
100
AcDbCircle
 10
358.39670647
 20
-1449.7736181667
 30
0.0
 40
10.31326611667794
100
AcDbArc
 50
209.8740064916
 51
259.3911330402
  0
ARC
  5
378
330
1F
100
AcDbEntity
  8
0
  6
Continuous
 62
     7
370
    15
100
AcDbCircle
 10
358.3118013646
 20
330.0720386411
 30
0.0
 40
10.18024774288105
100
AcDbArc
 50
100.2631180055
 51
150.4717424627
  0
ARC
  5
379
330
1F
100
AcDbEntity
  8
0
  6
Continuous
 62
     7
370
    15
100
AcDbCircle
 10
309.4717400605
 20
-1454.0317055637
 30
0.0
 40
5.881294024196661
100
AcDbArc
 50
188.594397673
 51
268.3626561005
  0
ARC
  5
37A
330
1F
100
AcDbEntity
  8
0
  6
Continuous
 62
     7
370
    15
100
AcDbCircle
 10
300.8830572982
 20
-1455.6594807444
 30
0.0
 40
4.251697932032393
100
AcDbArc
 50
169.8551530459
 51
270.9467249115
  0
ARC
  5
37B
330
1F
100
AcDbEntity
  8
0
  6
Continuous
 62
     7
370
    15
100
AcDbCircle
 10
309.4717400605
 20
334.2105090041
 30
0.0
 40
5.881294024196476
100
AcDbArc
 50
91.6373438995
 51
171.405602327
  0
ARC
  5
37C
330
1F
100
AcDbEntity
  8
0
  6
Continuous
 62
     7
370
    15
100
AcDbCircle
 10
300.8874365297
 20
335.8345570429
 30
0.0
 40
4.255354524948403
100
AcDbArc
 50
89.1130599306
 51
190.0850621121
  0
ARC
  5
37D
330
1F
100
AcDbEntity
  8
0
  6
Continuous
 62
     7
370
    15
100
AcDbCircle
 10
446.7647410256
 20
260.0296845176
 30
0.0
 40
107.9430277741208
100
AcDbArc
 50
44.0562463865
 51
47.8751443892
  0
ARC
  5
37E
330
1F
100
AcDbEntity
  8
0
  6
Continuous
 62
     7
370
    15
100
AcDbCircle
 10
446.7647410255
 20
-1379.8508810771
 30
0.0
 40
107.9430277741648
100
AcDbArc
 50
312.1248556108
 51
315.9437536135
  0
ARC
  5
37F
330
1F
100
AcDbEntity
  8
0
  6
Continuous
 62
     7
370
    15
100
AcDbCircle
 10
508.4393800876
 20
403.4450617667
 30
0.0
 40
94.92743317299312
100
AcDbArc
 50
313.9386411175
 51
318.1324043021
  0
ARC
  5
380
330
1F
100
AcDbEntity
  8
0
  6
Continuous
 62
     7
370
    15
100
AcDbCircle
 10
508.4393800877
 20
-1523.2662583262
 30
0.0
 40
94.92743317291983
100
AcDbArc
 50
41.8675956979
 51
46.0613588825
  0
ARC
  5
381
330
1F
100
AcDbEntity
  8
0
  6
Continuous
 62
     7
370
    15
100
AcDbCircle
 10
726.0894504491
 20
-1523.2662583262
 30
0.0
 40
94.9274331729182
100
AcDbArc
 50
133.9386411175
 51
138.1324043021
  0
ARC
  5
382
330
1F
100
AcDbEntity
  8
0
  6
Continuous
 62
     7
370
    15
100
AcDbCircle
 10
787.7640895113
 20
-1379.850881077
 30
0.0
 40
107.9430277743112
100
AcDbArc
 50
224.0562463865
 51
227.8751443892
  0
ARC
  5
383
330
1F
100
AcDbEntity
  8
0
  6
Continuous
 62
     7
370
    15
100
AcDbCircle
 10
726.0894504491
 20
403.4450617667
 30
0.0
 40
94.92743317296551
100
AcDbArc
 50
221.8675956979
 51
226.0613588825
  0
ARC
  5
384
330
1F
100
AcDbEntity
  8
0
  6
Continuous
 62
     7
370
    15
100
AcDbCircle
 10
787.7640895113
 20
260.0296845174
 30
0.0
 40
107.9430277743744
100
AcDbArc
 50
132.1248556108
 51
135.9437536135
  0
ARC
  5
385
330
1F
100
AcDbEntity
  8
0
  6
Continuous
 62
     7
370
    15
100
AcDbCircle
 10
758.8126173119
 20
-1487.5560189768
 30
0.0
 40
44.45270936682897
100
AcDbArc
 50
132.744691407
 51
141.5445222398
  0
ARC
  5
386
330
1F
100
AcDbEntity
  8
0
  6
Continuous
 62
     7
370
    15
100
AcDbCircle
 10
818.8634312067
 20
-1417.1984247013
 30
0.0
 40
55.22550118746838
100
AcDbArc
 50
223.0688006861
 51
230.6614572073
  0
ARC
  5
387
330
1F
100
AcDbEntity
  8
0
  6
Continuous
 62
     7
370
    15
100
AcDbCircle
 10
820.3745219022
 20
295.7644100289
 30
0.0
 40
57.43094599569369
100
AcDbArc
 50
129.4845297092
 51
136.7852123974
  0
ARC
  5
388
330
1F
100
AcDbEntity
  8
0
  6
Continuous
 62
     7
370
    15
100
AcDbCircle
 10
758.812617312
 20
367.7348224172
 30
0.0
 40
44.45270936686657
100
AcDbArc
 50
218.4554777602
 51
227.255308593
  0
ARC
  5
389
330
1F
100
AcDbEntity
  8
0
  6
Continuous
 62
     7
370
    15
100
AcDbCircle
 10
876.1062289113
 20
329.9159396822
 30
0.0
 40
10.35390879130668
100
AcDbArc
 50
29.9776870208
 51
79.287452511
  0
ARC
  5
38A
330
1F
100
AcDbEntity
  8
0
  6
Continuous
 62
     7
370
    15
100
AcDbCircle
 10
876.1321240668
 20
-1449.7736181667
 30
0.0
 40
10.31326611667661
100
AcDbArc
 50
280.6088669598
 51
330.1259935084
  0
ARC
  5
38B
330
1F
100
AcDbEntity
  8
0
  6
Continuous
 62
     7
370
    15
100
AcDbCircle
 10
925.0570904762
 20
334.2105090041
 30
0.0
 40
5.881294024196661
100
AcDbArc
 50
8.594397673
 51
88.3626561005
  0
ARC
  5
38C
330
1F
100
AcDbEntity
  8
0
  6
Continuous
 62
     7
370
    15
100
AcDbCircle
 10
925.0570904762
 20
-1454.0317055637
 30
0.0
 40
5.881294024196808
100
AcDbArc
 50
271.6373438995
 51
351.405602327
  0
ARC
  5
38D
330
1F
100
AcDbEntity
  8
0
  6
Continuous
 62
     7
370
    15
100
AcDbCircle
 10
933.6457732386
 20
335.8382841848
 30
0.0
 40
4.251697932032337
100
AcDbArc
 50
349.8551530459
 51
90.9467249115
  0
ARC
  5
38E
330
1F
100
AcDbEntity
  8
0
  6
Continuous
 62
     7
370
    15
100
AcDbCircle
 10
933.641394007
 20
-1455.6557536024
 30
0.0
 40
4.255354524948375
100
AcDbArc
 50
269.1130599306
 51
10.0850621121
  0
ENDSEC
  0
SECTION
  2
OBJECTS
  0
DICTIONARY
  5
C
330
0
100
AcDbDictionary
281
     1
  3
ACAD_GROUP
350
D
  3
ACAD_LAYOUT
350
1A
  3
ACAD_MLINESTYLE
350
17
  3
ACAD_PLOTSETTINGS
350
19
  3
ACAD_PLOTSTYLENAME
350
E
  3
ACAD_SCALELIST
350
47
  0
DICTIONARY
  5
D
102
{ACAD_REACTORS
330
C
102
}
330
C
100
AcDbDictionary
281
     1
  0
DICTIONARY
  5
1A
102
{ACAD_REACTORS
330
C
102
}
330
C
100
AcDbDictionary
281
     1
  3
Layout1
350
1E
  3
Layout2
350
26
  3
Model
350
22
  0
DICTIONARY
  5
17
102
{ACAD_REACTORS
330
C
102
}
330
C
100
AcDbDictionary
281
     1
  3
Standard
350
18
  0
DICTIONARY
  5
19
102
{ACAD_REACTORS
330
C
102
}
330
C
100
AcDbDictionary
281
     1
  0
ACDBDICTIONARYWDFLT
  5
E
102
{ACAD_REACTORS
330
C
102
}
330
C
100
AcDbDictionary
281
     1
  3
Normal
350
F
100
AcDbDictionaryWithDefault
340
F
  0
DICTIONARY
  5
47
102
{ACAD_REACTORS
330
C
102
}
330
C
100
AcDbDictionary
281
     1
  3
A0
350
48
  3
A1
350
49
  3
A2
350
4A
  3
A3
350
4B
  3
A4
350
4C
  3
A5
350
4D
  3
A6
350
4E
  3
A7
350
4F
  3
A8
350
50
  3
A9
350
51
  3
B0
350
52
  3
B1
350
53
  3
B2
350
54
  3
B3
350
55
  3
B4
350
56
  3
B5
350
57
  3
B6
350
58
  3
B7
350
59
  3
B8
350
5A
  3
B9
350
5B
  3
C0
350
5C
  3
C1
350
5D
  3
C2
350
5E
  3
C3
350
5F
  3
C4
350
60
  3
C5
350
61
  3
C6
350
62
  3
C7
350
63
  3
C8
350
64
  3
C9
350
65
  3
D0
350
66
  3
D1
350
67
  3
D2
350
68
  0
LAYOUT
  5
1E
102
{ACAD_REACTORS
330
1A
102
}
330
1A
100
AcDbPlotSettings
  1

  2
none_device
  4

  6

 40
0.0
 41
0.0
 42
0.0
 43
0.0
 44
0.0
 45
0.0
 46
0.0
 47
0.0
 48
0.0
 49
0.0
140
0.0
141
0.0
142
1.0
143
1.0
 70
   688
 72
     1
 73
     0
 74
     5
  7

 75
    16
147
1.0
148
0.0
149
0.0
100
AcDbLayout
  1
Layout1
 70
     1
 71
     1
 10
0.0
 20
0.0
 11
420.0
 21
297.0
 12
0.0
 22
0.0
 32
0.0
 14
1.0000000000E+20
 24
1.0000000000E+20
 34
1.0000000000E+20
 15
-1.0000000000E+20
 25
-1.0000000000E+20
 35
-1.0000000000E+20
146
0.0
 13
0.0
 23
0.0
 33
0.0
 16
1.0
 26
0.0
 36
0.0
 17
0.0
 27
1.0
 37
0.0
 76
     0
330
1B
  0
LAYOUT
  5
26
102
{ACAD_REACTORS
330
1A
102
}
330
1A
100
AcDbPlotSettings
  1

  2
none_device
  4

  6

 40
0.0
 41
0.0
 42
0.0
 43
0.0
 44
0.0
 45
0.0
 46
0.0
 47
0.0
 48
0.0
 49
0.0
140
0.0
141
0.0
142
1.0
143
1.0
 70
   688
 72
     1
 73
     0
 74
     5
  7

 75
    16
147
1.0
148
0.0
149
0.0
100
AcDbLayout
  1
Layout2
 70
     1
 71
     2
 10
0.0
 20
0.0
 11
0.0
 21
0.0
 12
0.0
 22
0.0
 32
0.0
 14
0.0
 24
0.0
 34
0.0
 15
0.0
 25
0.0
 35
0.0
146
0.0
 13
0.0
 23
0.0
 33
0.0
 16
1.0
 26
0.0
 36
0.0
 17
0.0
 27
1.0
 37
0.0
 76
     0
330
23
  0
LAYOUT
  5
22
102
{ACAD_REACTORS
330
1A
102
}
330
1A
100
AcDbPlotSettings
  1

  2
none_device
  4
ANSI_A_(11.00_x_8.50_Inches)
  6

 40
6.35
 41
19.05
 42
6.35000508
 43
19.05000254
 44
279.4
 45
215.9
 46
62.1109513564
 47
153.5197887877
 48
0.0
 49
0.0
140
0.0
141
0.0
142
0.0045437365
143
1.0
 70
  1696
 72
     0
 73
     0
 74
     0
  7

 75
     0
147
0.0179189148
148
-1300.4909072572
149
0.0
100
AcDbLayout
  1
Model
 70
     1
 71
     0
 10
0.0
 20
0.0
 11
420.0
 21
297.0
 12
0.0
 22
0.0
 32
0.0
 14
296.5191846093
 24
-1485.9105982798
 34
0.0
 15
938.0096459274
 25
366.0894017202
 35
0.0
146
0.0
 13
0.0
 23
0.0
 33
0.0
 16
1.0
 26
0.0
 36
0.0
 17
0.0
 27
1.0
 37
0.0
 76
     0
330
1F
331
29
  0
MLINESTYLE
  5
18
102
{ACAD_REACTORS
330
17
102
}
330
17
100
AcDbMlineStyle
  2
Standard
 70
     0
  3

 62
   256
 51
90.0
 52
90.0
 71
     2
 49
0.5
 62
   256
  6
BYLAYER
 49
-0.5
 62
   256
  6
BYLAYER
  0
ACDBPLACEHOLDER
  5
F
102
{ACAD_REACTORS
330
E
102
}
330
E
  0
SCALE
  5
48
102
{ACAD_REACTORS
330
47
102
}
330
47
100
AcDbScale
 70
     0
300
1:1
140
1.0
141
1.0
290
     1
  0
SCALE
  5
49
102
{ACAD_REACTORS
330
47
102
}
330
47
100
AcDbScale
 70
     0
300
1:2
140
1.0
141
2.0
290
     0
  0
SCALE
  5
4A
102
{ACAD_REACTORS
330
47
102
}
330
47
100
AcDbScale
 70
     0
300
1:4
140
1.0
141
4.0
290
     0
  0
SCALE
  5
4B
102
{ACAD_REACTORS
330
47
102
}
330
47
100
AcDbScale
 70
     0
300
1:5
140
1.0
141
5.0
290
     0
  0
SCALE
  5
4C
102
{ACAD_REACTORS
330
47
102
}
330
47
100
AcDbScale
 70
     0
300
1:8
140
1.0
141
8.0
290
     0
  0
SCALE
  5
4D
102
{ACAD_REACTORS
330
47
102
}
330
47
100
AcDbScale
 70
     0
300
1:10
140
1.0
141
10.0
290
     0
  0
SCALE
  5
4E
102
{ACAD_REACTORS
330
47
102
}
330
47
100
AcDbScale
 70
     0
300
1:16
140
1.0
141
16.0
290
     0
  0
SCALE
  5
4F
102
{ACAD_REACTORS
330
47
102
}
330
47
100
AcDbScale
 70
     0
300
1:20
140
1.0
141
20.0
290
     0
  0
SCALE
  5
50
102
{ACAD_REACTORS
330
47
102
}
330
47
100
AcDbScale
 70
     0
300
1:30
140
1.0
141
30.0
290
     0
  0
SCALE
  5
51
102
{ACAD_REACTORS
330
47
102
}
330
47
100
AcDbScale
 70
     0
300
1:40
140
1.0
141
40.0
290
     0
  0
SCALE
  5
52
102
{ACAD_REACTORS
330
47
102
}
330
47
100
AcDbScale
 70
     0
300
1:50
140
1.0
141
50.0
290
     0
  0
SCALE
  5
53
102
{ACAD_REACTORS
330
47
102
}
330
47
100
AcDbScale
 70
     0
300
1:100
140
1.0
141
100.0
290
     0
  0
SCALE
  5
54
102
{ACAD_REACTORS
330
47
102
}
330
47
100
AcDbScale
 70
     0
300
2:1
140
2.0
141
1.0
290
     0
  0
SCALE
  5
55
102
{ACAD_REACTORS
330
47
102
}
330
47
100
AcDbScale
 70
     0
300
4:1
140
4.0
141
1.0
290
     0
  0
SCALE
  5
56
102
{ACAD_REACTORS
330
47
102
}
330
47
100
AcDbScale
 70
     0
300
8:1
140
8.0
141
1.0
290
     0
  0
SCALE
  5
57
102
{ACAD_REACTORS
330
47
102
}
330
47
100
AcDbScale
 70
     0
300
10:1
140
10.0
141
1.0
290
     0
  0
SCALE
  5
58
102
{ACAD_REACTORS
330
47
102
}
330
47
100
AcDbScale
 70
     0
300
100:1
140
100.0
141
1.0
290
     0
  0
SCALE
  5
59
102
{ACAD_REACTORS
330
47
102
}
330
47
100
AcDbScale
 70
     0
300
1/128" = 1'-0"
140
0.0078125
141
12.0
290
     0
  0
SCALE
  5
5A
102
{ACAD_REACTORS
330
47
102
}
330
47
100
AcDbScale
 70
     0
300
1/64" = 1'-0"
140
0.015625
141
12.0
290
     0
  0
SCALE
  5
5B
102
{ACAD_REACTORS
330
47
102
}
330
47
100
AcDbScale
 70
     0
300
1/32" = 1'-0"
140
0.03125
141
12.0
290
     0
  0
SCALE
  5
5C
102
{ACAD_REACTORS
330
47
102
}
330
47
100
AcDbScale
 70
     0
300
1/16" = 1'-0"
140
0.0625
141
12.0
290
     0
  0
SCALE
  5
5D
102
{ACAD_REACTORS
330
47
102
}
330
47
100
AcDbScale
 70
     0
300
3/32" = 1'-0"
140
0.09375
141
12.0
290
     0
  0
SCALE
  5
5E
102
{ACAD_REACTORS
330
47
102
}
330
47
100
AcDbScale
 70
     0
300
1/8" = 1'-0"
140
0.125
141
12.0
290
     0
  0
SCALE
  5
5F
102
{ACAD_REACTORS
330
47
102
}
330
47
100
AcDbScale
 70
     0
300
3/16" = 1'-0"
140
0.1875
141
12.0
290
     0
  0
SCALE
  5
60
102
{ACAD_REACTORS
330
47
102
}
330
47
100
AcDbScale
 70
     0
300
1/4" = 1'-0"
140
0.25
141
12.0
290
     0
  0
SCALE
  5
61
102
{ACAD_REACTORS
330
47
102
}
330
47
100
AcDbScale
 70
     0
300
3/8" = 1'-0"
140
0.375
141
12.0
290
     0
  0
SCALE
  5
62
102
{ACAD_REACTORS
330
47
102
}
330
47
100
AcDbScale
 70
     0
300
1/2" = 1'-0"
140
0.5
141
12.0
290
     0
  0
SCALE
  5
63
102
{ACAD_REACTORS
330
47
102
}
330
47
100
AcDbScale
 70
     0
300
3/4" = 1'-0"
140
0.75
141
12.0
290
     0
  0
SCALE
  5
64
102
{ACAD_REACTORS
330
47
102
}
330
47
100
AcDbScale
 70
     0
300
1" = 1'-0"
140
1.0
141
12.0
290
     0
  0
SCALE
  5
65
102
{ACAD_REACTORS
330
47
102
}
330
47
100
AcDbScale
 70
     0
300
1-1/2" = 1'-0"
140
1.5
141
12.0
290
     0
  0
SCALE
  5
66
102
{ACAD_REACTORS
330
47
102
}
330
47
100
AcDbScale
 70
     0
300
3" = 1'-0"
140
3.0
141
12.0
290
     0
  0
SCALE
  5
67
102
{ACAD_REACTORS
330
47
102
}
330
47
100
AcDbScale
 70
     0
300
6" = 1'-0"
140
6.0
141
12.0
290
     0
  0
SCALE
  5
68
102
{ACAD_REACTORS
330
47
102
}
330
47
100
AcDbScale
 70
     0
300
1'-0" = 1'-0"
140
12.0
141
12.0
290
     0
  0
ENDSEC
  0
EOF
