  0
SECTION
  2
HEADER
  9
$ACADVER
  1
AC1015
  9
$ACADMAINTVER
 70
     6
  9
$DWGCODEPAGE
  3
ANSI_1251
  9
$INSBASE
 10
0.0
 20
0.0
 30
0.0
  9
$EXTMIN
 10
-3500.0
 20
-1596.0
 30
0.0
  9
$EXTMAX
 10
3500.0
 20
2026.0
 30
0.0
  9
$LIMMIN
 10
0.0
 20
0.0
  9
$LIMMAX
 10
420.0
 20
297.0
  9
$ORTHOMODE
 70
     0
  9
$REGENMODE
 70
     1
  9
$FILLMODE
 70
     1
  9
$QTEXTMODE
 70
     0
  9
$MIRRTEXT
 70
     1
  9
$LTSCALE
 40
1.0
  9
$ATTMODE
 70
     1
  9
$TEXTSIZE
 40
3.0
  9
$TRACEWID
 40
1.0
  9
$TEXTSTYLE
  7
Standard
  9
$CLAYER
  8
0
  9
$CELTYPE
  6
ByLayer
  9
$CECOLOR
 62
   256
  9
$CELTSCALE
 40
1.0
  9
$DISPSILH
 70
     0
  9
$DIMSCALE
 40
1.0
  9
$DIMASZ
 40
3.0
  9
$DIMEXO
 40
0.0
  9
$DIMDLI
 40
3.75
  9
$DIMRND
 40
0.0
  9
$DIMDLE
 40
0.0
  9
$DIMEXE
 40
2.0
  9
$DIMTP
 40
0.0
  9
$DIMTM
 40
0.0
  9
$DIMTXT
 40
3.0
  9
$DIMCEN
 40
2.5
  9
$DIMTSZ
 40
0.0
  9
$DIMTOL
 70
     0
  9
$DIMLIM
 70
     0
  9
$DIMTIH
 70
     1
  9
$DIMTOH
 70
     1
  9
$DIMSE1
 70
     0
  9
$DIMSE2
 70
     0
  9
$DIMTAD
 70
     1
  9
$DIMZIN
 70
     0
  9
$DIMBLK
  1

  9
$DIMASO
 70
     1
  9
$DIMSHO
 70
     1
  9
$DIMPOST
  1

  9
$DIMAPOST
  1

  9
$DIMALT
 70
     0
  9
$DIMALTD
 70
     3
  9
$DIMALTF
 40
0.0393700787
  9
$DIMLFAC
 40
1.0
  9
$DIMTOFL
 70
     1
  9
$DIMTVP
 40
0.0
  9
$DIMTIX
 70
     0
  9
$DIMSOXD
 70
     0
  9
$DIMSAH
 70
     0
  9
$DIMBLK1
  1

  9
$DIMBLK2
  1

  9
$DIMSTYLE
  2
ISO-25
  9
$DIMCLRD
 70
     0
  9
$DIMCLRE
 70
     0
  9
$DIMCLRT
 70
     0
  9
$DIMTFAC
 40
1.0
  9
$DIMGAP
 40
2.0
  9
$DIMJUST
 70
     0
  9
$DIMSD1
 70
     0
  9
$DIMSD2
 70
     0
  9
$DIMTOLJ
 70
     0
  9
$DIMTZIN
 70
     0
  9
$DIMALTZ
 70
     0
  9
$DIMALTTZ
 70
     0
  9
$DIMUPT
 70
     0
  9
$DIMDEC
 70
     2
  9
$DIMTDEC
 70
     2
  9
$DIMALTU
 70
     2
  9
$DIMALTTD
 70
     3
  9
$DIMTXSTY
  7
Standard
  9
$DIMAUNIT
 70
     0
  9
$DIMADEC
 70
     2
  9
$DIMALTRND
 40
0.0
  9
$DIMAZIN
 70
     0
  9
$DIMDSEP
 70
    44
  9
$DIMATFIT
 70
     3
  9
$DIMFRAC
 70
     0
  9
$DIMLDRBLK
  1

  9
$DIMLUNIT
 70
     2
  9
$DIMLWD
 70
    -2
  9
$DIMLWE
 70
    -2
  9
$DIMTMOVE
 70
     0
  9
$LUNITS
 70
     2
  9
$LUPREC
 70
     2
  9
$SKETCHINC
 40
1.0
  9
$FILLETRAD
 40
10.0
  9
$AUNITS
 70
     1
  9
$AUPREC
 70
     2
  9
$MENU
  1
.
  9
$ELEVATION
 40
0.0
  9
$PELEVATION
 40
0.0
  9
$THICKNESS
 40
0.0
  9
$LIMCHECK
 70
     0
  9
$CHAMFERA
 40
0.0
  9
$CHAMFERB
 40
0.0
  9
$CHAMFERC
 40
0.0
  9
$CHAMFERD
 40
0.0
  9
$SKPOLY
 70
     0
  9
$TDCREATE
 40
2459306.685525995
  9
$TDUCREATE
 40
2459306.560525995
  9
$TDUPDATE
 40
2459306.685557998
  9
$TDUUPDATE
 40
2459306.560557998
  9
$TDINDWG
 40
0.0000000116
  9
$TDUSRTIMER
 40
0.0000000116
  9
$USRTIMER
 70
     1
  9
$ANGBASE
 50
0.0
  9
$ANGDIR
 70
     0
  9
$PDMODE
 70
     0
  9
$PDSIZE
 40
-1.0
  9
$PLINEWID
 40
0.0
  9
$SPLFRAME
 70
     0
  9
$SPLINETYPE
 70
     6
  9
$SPLINESEGS
 70
     8
  9
$HANDSEED
  5
363
  9
$SURFTAB1
 70
     6
  9
$SURFTAB2
 70
     6
  9
$SURFTYPE
 70
     6
  9
$SURFU
 70
     6
  9
$SURFV
 70
     6
  9
$UCSBASE
  2

  9
$UCSNAME
  2

  9
$UCSORG
 10
0.0
 20
0.0
 30
0.0
  9
$UCSXDIR
 10
1.0
 20
0.0
 30
0.0
  9
$UCSYDIR
 10
0.0
 20
1.0
 30
0.0
  9
$UCSORTHOREF
  2

  9
$UCSORTHOVIEW
 70
     0
  9
$UCSORGTOP
 10
0.0
 20
0.0
 30
0.0
  9
$UCSORGBOTTOM
 10
0.0
 20
0.0
 30
0.0
  9
$UCSORGLEFT
 10
0.0
 20
0.0
 30
0.0
  9
$UCSORGRIGHT
 10
0.0
 20
0.0
 30
0.0
  9
$UCSORGFRONT
 10
0.0
 20
0.0
 30
0.0
  9
$UCSORGBACK
 10
0.0
 20
0.0
 30
0.0
  9
$PUCSBASE
  2

  9
$PUCSNAME
  2

  9
$PUCSORG
 10
0.0
 20
0.0
 30
0.0
  9
$PUCSXDIR
 10
1.0
 20
0.0
 30
0.0
  9
$PUCSYDIR
 10
0.0
 20
1.0
 30
0.0
  9
$PUCSORTHOREF
  2

  9
$PUCSORTHOVIEW
 70
     0
  9
$PUCSORGTOP
 10
0.0
 20
0.0
 30
0.0
  9
$PUCSORGBOTTOM
 10
0.0
 20
0.0
 30
0.0
  9
$PUCSORGLEFT
 10
0.0
 20
0.0
 30
0.0
  9
$PUCSORGRIGHT
 10
0.0
 20
0.0
 30
0.0
  9
$PUCSORGFRONT
 10
0.0
 20
0.0
 30
0.0
  9
$PUCSORGBACK
 10
0.0
 20
0.0
 30
0.0
  9
$USERI1
 70
     0
  9
$USERI2
 70
     0
  9
$USERI3
 70
     0
  9
$USERI4
 70
     0
  9
$USERI5
 70
     0
  9
$USERR1
 40
0.0
  9
$USERR2
 40
0.0
  9
$USERR3
 40
0.0
  9
$USERR4
 40
0.0
  9
$USERR5
 40
0.0
  9
$WORLDVIEW
 70
     1
  9
$SHADEDGE
 70
     3
  9
$SHADEDIF
 70
    70
  9
$TILEMODE
 70
     1
  9
$MAXACTVP
 70
    64
  9
$PINSBASE
 10
0.0
 20
0.0
 30
0.0
  9
$PLIMCHECK
 70
     0
  9
$PEXTMIN
 10
1.0000000000E+20
 20
1.0000000000E+20
 30
1.0000000000E+20
  9
$PEXTMAX
 10
-1.0000000000E+20
 20
-1.0000000000E+20
 30
-1.0000000000E+20
  9
$PLIMMIN
 10
0.0
 20
0.0
  9
$PLIMMAX
 10
420.0
 20
297.0
  9
$UNITMODE
 70
     0
  9
$VISRETAIN
 70
     1
  9
$PLINEGEN
 70
     0
  9
$PSLTSCALE
 70
     1
  9
$TREEDEPTH
 70
  3020
  9
$CMLSTYLE
  2
Standard
  9
$CMLJUST
 70
     0
  9
$CMLSCALE
 40
20.0
  9
$PROXYGRAPHICS
 70
     1
  9
$MEASUREMENT
 70
     1
  9
$CELWEIGHT
370
    -1
  9
$ENDCAPS
280
     0
  9
$JOINSTYLE
280
     0
  9
$LWDISPLAY
290
     1
  9
$INSUNITS
 70
     4
  9
$HYPERLINKBASE
  1

  9
$STYLESHEET
  1

  9
$XEDIT
290
     1
  9
$CEPSNTYPE
380
     0
  9
$PSTYLEMODE
290
     1
  9
$FINGERPRINTGUID
  2
{40BB13F7-6CEF-4495-A696-EA8EBEAA7D78}
  9
$VERSIONGUID
  2
{FAEB1C32-E019-11D5-929B-00C0DF256EC4}
  9
$EXTNAMES
290
     1
  9
$PSVPSCALE
 40
0.0
  9
$OLESTARTUP
290
     0
  0
ENDSEC
  0
SECTION
  2
CLASSES
  0
CLASS
  1
ACDBDICTIONARYWDFLT
  2
AcDbDictionaryWithDefault
  3
ObjectDBX Classes
 90
        0
280
     0
281
     0
  0
CLASS
  1
VISUALSTYLE
  2
AcDbVisualStyle
  3
ObjectDBX Classes
 90
     4095
280
     0
281
     0
  0
CLASS
  1
MATERIAL
  2
AcDbMaterial
  3
ObjectDBX Classes
 90
     1153
280
     0
281
     0
  0
CLASS
  1
SCALE
  2
AcDbScale
  3
ObjectDBX Classes
 90
     1153
280
     0
281
     0
  0
CLASS
  1
SUN
  2
AcDbSun
  3
SCENEOE
 90
     1153
280
     0
281
     0
  0
CLASS
  1
ACDBPLACEHOLDER
  2
AcDbPlaceHolder
  3
ObjectDBX Classes
 90
        0
280
     0
281
     0
  0
CLASS
  1
LAYOUT
  2
AcDbLayout
  3
ObjectDBX Classes
 90
        0
280
     0
281
     0
  0
ENDSEC
  0
SECTION
  2
TABLES
  0
TABLE
  2
VPORT
  5
8
330
0
100
AcDbSymbolTable
 70
     1
  0
VPORT
  5
29
330
8
100
AcDbSymbolTableRecord
100
AcDbViewportTableRecord
  2
*Active
 70
     0
 10
0.0
 20
0.0
 11
1.0
 21
1.0
 12
0.0
 22
215.0
 13
0.0
 23
0.0
 14
10.0
 24
10.0
 15
10.0
 25
10.0
 16
0.0
 26
0.0
 36
1.0
 17
0.0
 27
0.0
 37
0.0
 40
3694.44
 41
1.9326339039
 42
50.0
 43
0.0
 44
0.0
 50
0.0
 51
0.0
 71
     0
 72
   100
 73
     1
 74
     3
 75
     0
 76
     0
 77
     0
 78
     0
281
     0
 65
     1
110
0.0
120
0.0
130
0.0
111
1.0
121
0.0
131
0.0
112
0.0
122
1.0
132
0.0
 79
     0
146
0.0
  0
ENDTAB
  0
TABLE
  2
LTYPE
  5
5
330
0
100
AcDbSymbolTable
 70
     6
  0
LTYPE
  5
14
330
5
100
AcDbSymbolTableRecord
100
AcDbLinetypeTableRecord
  2
ByBlock
 70
     0
  3

 72
    65
 73
     0
 40
0.0
  0
LTYPE
  5
15
330
5
100
AcDbSymbolTableRecord
100
AcDbLinetypeTableRecord
  2
ByLayer
 70
     0
  3

 72
    65
 73
     0
 40
0.0
  0
LTYPE
  5
16
330
5
100
AcDbSymbolTableRecord
100
AcDbLinetypeTableRecord
  2
Continuous
 70
     0
  3
Solid line
 72
    65
 73
     0
 40
0.0
  0
LTYPE
  5
6A
330
5
100
AcDbSymbolTableRecord
100
AcDbLinetypeTableRecord
  2
HIDDEN
 70
     0
  3
Hidden __ __ __ __ __ __ __ __ __ __ __ __ __ __
 72
    65
 73
     2
 40
1.905
 49
1.27
 74
     0
 49
-0.635
 74
     0
  0
LTYPE
  5
6B
330
5
100
AcDbSymbolTableRecord
100
AcDbLinetypeTableRecord
  2
PHANTOM
 70
     0
  3
Phantom ______  __  __  ______  __  __  ______
 72
    65
 73
     6
 40
12.7
 49
6.35
 74
     0
 49
-1.27
 74
     0
 49
1.27
 74
     0
 49
-1.27
 74
     0
 49
1.27
 74
     0
 49
-1.27
 74
     0
  0
LTYPE
  5
6C
330
5
100
AcDbSymbolTableRecord
100
AcDbLinetypeTableRecord
  2
CENTER
 70
     0
  3
Center ____ _ ____ _ ____ _ ____ _ ____ _ ____
 72
    65
 73
     4
 40
10.16
 49
6.35
 74
     0
 49
-1.27
 74
     0
 49
1.27
 74
     0
 49
-1.27
 74
     0
  0
LTYPE
  5
6D
330
5
100
AcDbSymbolTableRecord
100
AcDbLinetypeTableRecord
  2
CENTERX2
 70
     0
  3
Center (2x) ________  __  ________  __  _____
 72
    65
 73
     4
 40
20.32
 49
12.7
 74
     0
 49
-2.54
 74
     0
 49
2.54
 74
     0
 49
-2.54
 74
     0
  0
LTYPE
  5
6E
330
5
100
AcDbSymbolTableRecord
100
AcDbLinetypeTableRecord
  2
DOT2
 70
     0
  3
Dot (.5x) ........................................
 72
    65
 73
     2
 40
0.635
 49
0.0
 74
     0
 49
-0.635
 74
     0
  0
ENDTAB
  0
TABLE
  2
LAYER
  5
2
330
0
100
AcDbSymbolTable
 70
     1
  0
LAYER
  5
10
330
2
100
AcDbSymbolTableRecord
100
AcDbLayerTableRecord
  2
0
 70
     0
 62
     7
  6
Continuous
370
    -3
390
F
  0
ENDTAB
  0
TABLE
  2
STYLE
  5
3
330
0
100
AcDbSymbolTable
 70
     1
  0
STYLE
  5
11
330
3
100
AcDbSymbolTableRecord
100
AcDbTextStyleTableRecord
  2
Standard
 70
     0
 40
0.0
 41
1.0
 50
0.0
 71
     0
 42
3.0
  3
txt
  4

  0
ENDTAB
  0
TABLE
  2
VIEW
  5
6
330
0
100
AcDbSymbolTable
 70
     0
  0
ENDTAB
  0
TABLE
  2
UCS
  5
7
330
0
100
AcDbSymbolTable
 70
     0
  0
ENDTAB
  0
TABLE
  2
APPID
  5
9
330
0
100
AcDbSymbolTable
 70
     1
  0
APPID
  5
12
330
9
100
AcDbSymbolTableRecord
100
AcDbRegAppTableRecord
  2
ACAD
 70
     0
  0
ENDTAB
  0
TABLE
  2
DIMSTYLE
  5
A
330
0
100
AcDbSymbolTable
 70
     1
100
AcDbDimStyleTable
  0
DIMSTYLE
105
27
330
A
100
AcDbSymbolTableRecord
100
AcDbDimStyleTableRecord
  2
ISO-25
 70
     0
 41
2.5
 42
0.625
 43
3.75
 44
1.25
 73
     0
 74
     0
 77
     1
 78
     8
140
2.5
141
2.5
143
0.0393700787
147
0.625
171
     3
172
     1
178
     0
271
     2
272
     2
274
     3
278
    44
283
     0
284
     8
340
11
  0
ENDTAB
  0
TABLE
  2
BLOCK_RECORD
  5
1
330
0
100
AcDbSymbolTable
 70
     1
  0
BLOCK_RECORD
  5
1F
330
1
100
AcDbSymbolTableRecord
100
AcDbBlockTableRecord
  2
*Model_Space
340
22
  0
BLOCK_RECORD
  5
1B
330
1
100
AcDbSymbolTableRecord
100
AcDbBlockTableRecord
  2
*Paper_Space
340
1E
  0
BLOCK_RECORD
  5
23
330
1
100
AcDbSymbolTableRecord
100
AcDbBlockTableRecord
  2
*Paper_Space0
340
26
  0
ENDTAB
  0
ENDSEC
  0
SECTION
  2
BLOCKS
  0
BLOCK
  5
20
330
1F
100
AcDbEntity
  8
0
100
AcDbBlockBegin
  2
*Model_Space
 70
     0
 10
0.0
 20
0.0
 30
0.0
  3
*Model_Space
  1
*Model_Space
  0
ENDBLK
  5
21
330
1F
100
AcDbEntity
  8
0
100
AcDbBlockEnd
  0
BLOCK
  5
1C
330
1B
100
AcDbEntity
 67
     1
  8
0
100
AcDbBlockBegin
  2
*Paper_Space
 70
     0
 10
0.0
 20
0.0
 30
0.0
  3
*Paper_Space
  1
*Paper_Space
  0
ENDBLK
  5
1D
330
1B
100
AcDbEntity
 67
     1
  8
0
100
AcDbBlockEnd
  0
BLOCK
  5
24
330
23
100
AcDbEntity
  8
0
100
AcDbBlockBegin
  2
*Paper_Space0
 70
     0
 10
0.0
 20
0.0
 30
0.0
  3
*Paper_Space0
  1
*Paper_Space0
  0
ENDBLK
  5
25
330
23
100
AcDbEntity
  8
0
100
AcDbBlockEnd
  0
ENDSEC
  0
SECTION
  2
ENTITIES
  0
SPLINE
  5
6F
330
1F
100
AcDbEntity
  8
0
  6
Continuous
 62
     7
370
    15
100
AcDbSpline
210
0.0
220
0.0
230
1.0
 70
     8
 71
     3
 72
    39
 73
    35
 74
     0
 42
0.000000001
 43
0.00000001
 40
0.0
 40
0.0
 40
0.0
 40
0.0
 40
0.039975112061413
 40
0.0559986480901385
 40
0.0825853111211172
 40
0.1101003909322613
 40
0.1395339240697814
 40
0.170160735859179
 40
0.2016904666308263
 40
0.2338925919247221
 40
0.2666057503467292
 40
0.2997130669786668
 40
0.3331294634755179
 40
0.3667931514898383
 40
0.4006602042380817
 40
0.4347011869214737
 40
0.4688992552121034
 40
0.5032493506213866
 40
0.5377582133113277
 40
0.5724448515926545
 40
0.6073406755068619
 40
0.6424872209848642
 40
0.6779260288182981
 40
0.7136673642049274
 40
0.749611053462997
 40
0.785221885558681
 40
0.8195783709033779
 40
0.8519299810052796
 40
0.8821355605633111
 40
0.9105784548657367
 40
0.9378202344235834
 40
0.9644125602870594
 40
0.9908535199615804
 40
0.9999999999999999
 40
0.9999999999999999
 40
0.9999999999999999
 40
0.9999999999999999
 10
1927.14542293575
 20
215.0000000000003
 30
0.0
 10
1927.137217027945
 20
216.7907397946872
 30
0.0
 10
1927.125721882098
 20
219.2992757915249
 30
0.0
 10
1927.049191965494
 20
222.9876261777006
 30
0.0
 10
1926.958246537553
 20
226.110516167279
 30
0.0
 10
1926.806768118576
 20
229.8097116854177
 30
0.0
 10
1926.601801180392
 20
233.6574843183517
 30
0.0
 10
1926.336603062099
 20
237.639344420141
 30
0.0
 10
1926.00984544624
 20
241.6869515914925
 30
0.0
 10
1925.620432368126
 20
245.7567682362892
 30
0.0
 10
1925.16812026509
 20
249.813211723147
 30
0.0
 10
1924.6531420211
 20
253.8275189782146
 30
0.0
 10
1924.076064130108
 20
257.7758481035131
 30
0.0
 10
1923.437636287038
 20
261.6381935196251
 30
0.0
 10
1922.738650370382
 20
265.3976925062065
 30
0.0
 10
1921.979784944937
 20
269.0402008301267
 30
0.0
 10
1921.161419336783
 20
272.5540483255832
 30
0.0
 10
1920.283396085327
 20
275.9299163614835
 30
0.0
 10
1919.344705487985
 20
279.1607917170738
 30
0.0
 10
1918.343059917411
 20
282.2419447789848
 30
0.0
 10
1917.274327076243
 20
285.1708411428439
 30
0.0
 10
1916.131826240286
 20
287.9467893784652
 30
0.0
 10
1914.905636877274
 20
290.5698888757701
 30
0.0
 10
1913.582495984755
 20
293.0384298696665
 30
0.0
 10
1912.150004237753
 20
295.3400944601113
 30
0.0
 10
1910.603187557075
 20
297.4473743297825
 30
0.0
 10
1908.948362678889
 20
299.3252954818254
 30
0.0
 10
1907.198521684208
 20
300.9471370001729
 30
0.0
 10
1905.363521016548
 20
302.3039031901502
 30
0.0
 10
1903.444864381617
 20
303.3942804301338
 30
0.0
 10
1901.439683524689
 20
304.2251974053769
 30
0.0
 10
1899.350581162951
 20
304.759892255666
 30
0.0
 10
1897.665198925077
 20
305.011427661828
 30
0.0
 10
1896.695282662449
 20
304.9744487272945
 30
0.0
 10
1896.446000336814
 20
304.9649446132229
 30
0.0
  0
SPLINE
  5
70
330
1F
100
AcDbEntity
  8
0
  6
Continuous
 62
     7
370
    15
100
AcDbSpline
210
0.0
220
0.0
230
1.0
 70
     8
 71
     3
 72
    37
 73
    33
 74
     0
 42
0.000000001
 43
0.00000001
 40
0.0
 40
0.0
 40
0.0
 40
0.0
 40
0.0175067788404533
 40
0.0450265820267047
 40
0.0737197808814972
 40
0.104230278072294
 40
0.1336288457739839
 40
0.1654532979077724
 40
0.2002738194457025
 40
0.2380364653724192
 40
0.2775530900145899
 40
0.3171555684919175
 40
0.3560969360995485
 40
0.3944939426597676
 40
0.4324241003136833
 40
0.4699632889286285
 40
0.5071769354790281
 40
0.5441182817866368
 40
0.5808284223131528
 40
0.6173369534694907
 40
0.6536623439357945
 40
0.6898112823334576
 40
0.725776033322628
 40
0.7615278680827818
 40
0.7970018186311578
 40
0.8320593198775545
 40
0.8663836789982098
 40
0.8991129302537465
 40
0.9284817216083027
 40
0.9499421533014127
 40
0.9739824560400476
 40
1.0
 40
1.0
 40
1.0
 40
1.0
 10
1896.441985175025
 20
125.0352367589736
 30
0.0
 10
1896.920017609641
 20
125.0344100118423
 30
0.0
 10
1898.149493735708
 20
125.03228365851
 30
0.0
 10
1900.126353541971
 20
125.3989547662827
 30
0.0
 10
1902.333520486964
 20
126.097560389251
 30
0.0
 10
1904.410161888789
 20
127.1104492554008
 30
0.0
 10
1906.354381836819
 20
128.3868289353556
 30
0.0
 10
1908.180254927829
 20
129.9168080671073
 30
0.0
 10
1909.950344681595
 20
131.7614509819876
 30
0.0
 10
1911.649339381563
 20
133.9264798988164
 30
0.0
 10
1913.248740905918
 20
136.3797423617076
 30
0.0
 10
1914.727151117067
 20
139.0637902652904
 30
0.0
 10
1916.08339757915
 20
141.9315151089792
 30
0.0
 10
1917.331346158646
 20
144.9661393362429
 30
0.0
 10
1918.486750609938
 20
148.1685985763299
 30
0.0
 10
1919.559532364939
 20
151.5372671336853
 30
0.0
 10
1920.556021144684
 20
155.0688159728602
 30
0.0
 10
1921.480075503396
 20
158.7580512305167
 30
0.0
 10
1922.333869649804
 20
162.5979298902681
 30
0.0
 10
1923.118435591697
 20
166.5795869207319
 30
0.0
 10
1923.834040910117
 20
170.6923094161473
 30
0.0
 10
1924.480452663011
 20
174.9233711857345
 30
0.0
 10
1925.057120078605
 20
179.257575147425
 30
0.0
 10
1925.563292180436
 20
183.6761625337928
 30
0.0
 10
1925.998074286197
 20
188.1541900416885
 30
0.0
 10
1926.360354793829
 20
192.6535469937161
 30
0.0
 10
1926.648411550905
 20
197.1003079277385
 30
0.0
 10
1926.860566727519
 20
201.3469681915035
 30
0.0
 10
1926.996249048077
 20
205.0560888456036
 30
0.0
 10
1927.081494361027
 20
208.3944415896651
 30
0.0
 10
1927.134710709308
 20
211.5925500727718
 30
0.0
 10
1927.141759388051
 20
213.8346628587042
 30
0.0
 10
1927.14542293575
 20
215.0000000000003
 30
0.0
  0
SPLINE
  5
7B
330
1F
100
AcDbEntity
  8
0
  6
Continuous
 62
     7
370
    15
100
AcDbSpline
210
0.0
220
0.0
230
1.0
 70
     8
 71
     3
 72
    37
 73
    33
 74
     0
 42
0.000000001
 43
0.00000001
 40
0.0
 40
0.0
 40
0.0
 40
0.0
 40
0.0173647587284286
 40
0.0448885399223126
 40
0.0735858863999278
 40
0.1041007939053636
 40
0.1335036111914552
 40
0.1653326635729868
 40
0.2001582184426939
 40
0.2379263229874291
 40
0.2774486597865056
 40
0.3170568628309981
 40
0.3560038594417392
 40
0.3944064163172545
 40
0.4323420568031479
 40
0.4698866717352083
 40
0.507105697545389
 40
0.5440523837515544
 40
0.5807678307556825
 40
0.6172816392468453
 40
0.6536122805748563
 40
0.6897664443279188
 40
0.7257363940481013
 40
0.761493396762053
 40
0.7969724750958731
 40
0.8320350439296712
 40
0.86636436466148
 40
0.8990983469541632
 40
0.9284713835889943
 40
0.949934917403226
 40
0.9739786951853349
 40
1.0
 40
1.0
 40
1.0
 40
1.0
 10
-1947.958787037499
 20
304.9645015596568
 30
0.0
 10
-1948.432867733393
 20
304.9652674428428
 30
0.0
 10
-1949.658383767152
 20
304.967247279045
 30
0.0
 10
-1951.631335436928
 20
304.6009623812246
 30
0.0
 10
-1953.83851282354
 20
303.9024638210299
 30
0.0
 10
-1955.915151243236
 20
302.8895443777106
 30
0.0
 10
-1957.859371990574
 20
301.6131728934336
 30
0.0
 10
-1959.685244848803
 20
300.0831913748866
 30
0.0
 10
-1961.455334673523
 20
298.2385491875451
 30
0.0
 10
-1963.154329352142
 20
296.0735200517956
 30
0.0
 10
-1964.753730882633
 20
293.6202576518314
 30
0.0
 10
-1966.232141092116
 20
290.9362097311571
 30
0.0
 10
-1967.588387554637
 20
288.0684848919652
 30
0.0
 10
-1968.836336134019
 20
285.0338606635235
 30
0.0
 10
-1969.991740585342
 20
281.8314014237466
 30
0.0
 10
-1971.064522340336
 20
278.4627328663091
 30
0.0
 10
-1972.061011120082
 20
274.9311840271552
 30
0.0
 10
-1972.985065478794
 20
271.2419487694925
 30
0.0
 10
-1973.838859625203
 20
267.4020701097425
 30
0.0
 10
-1974.623425567095
 20
263.4204130792775
 30
0.0
 10
-1975.339030885516
 20
259.3076905838621
 30
0.0
 10
-1975.985442638409
 20
255.0766288142752
 30
0.0
 10
-1976.562110054005
 20
250.7424248525851
 30
0.0
 10
-1977.068282155835
 20
246.3238374662166
 30
0.0
 10
-1977.503064261598
 20
241.84580995832
 30
0.0
 10
-1977.865344769229
 20
237.3464530062913
 30
0.0
 10
-1978.153401526305
 20
232.8996920722686
 30
0.0
 10
-1978.365556702919
 20
228.6530318085012
 30
0.0
 10
-1978.501239023477
 20
224.9439111543961
 30
0.0
 10
-1978.586484336427
 20
221.6055584103214
 30
0.0
 10
-1978.639700684708
 20
218.4074499272154
 30
0.0
 10
-1978.646749363452
 20
216.1653371412864
 30
0.0
 10
-1978.65041291115
 20
215.0000000000015
 30
0.0
  0
SPLINE
  5
7C
330
1F
100
AcDbEntity
  8
0
  6
Continuous
 62
     7
370
    15
100
AcDbSpline
210
0.0
220
0.0
230
1.0
 70
     8
 71
     3
 72
    39
 73
    35
 74
     0
 42
0.000000001
 43
0.00000001
 40
0.0
 40
0.0
 40
0.0
 40
0.0
 40
0.0399640376586342
 40
0.0559831346480939
 40
0.0825624323108909
 40
0.1100698895523791
 40
0.1394952686464273
 40
0.1701135958155139
 40
0.2016345918289039
 40
0.233827796089541
 40
0.2665318919054743
 40
0.2996300367367514
 40
0.3330371758077527
 40
0.3666915378884991
 40
0.4005492083645098
 40
0.4345807605914595
 40
0.4687693549078065
 40
0.5031099342264057
 40
0.5376092368419669
 40
0.5722862657992877
 40
0.6071724224382868
 40
0.6423092311830564
 40
0.6777382213171235
 40
0.7134696551944512
 40
0.7494033868846228
 40
0.7850043536246432
 40
0.8193513211084331
 40
0.8516939687648998
 40
0.8818911803975658
 40
0.9103261950956143
 40
0.9375604277968353
 40
0.9641453867234218
 40
0.9905790213943898
 40
1.0
 40
1.0
 40
1.0
 40
1.0
 10
-1978.65041291115
 20
215.0000000000015
 30
0.0
 10
-1978.642207003346
 20
213.2092602053143
 30
0.0
 10
-1978.6307118575
 20
210.7007242084763
 30
0.0
 10
-1978.554181940894
 20
207.0123738223039
 30
0.0
 10
-1978.463236512955
 20
203.8894838327288
 30
0.0
 10
-1978.311758093976
 20
200.1902883145937
 30
0.0
 10
-1978.106791155793
 20
196.3425156816568
 30
0.0
 10
-1977.841593037499
 20
192.3606555798676
 30
0.0
 10
-1977.514835421641
 20
188.3130484085135
 30
0.0
 10
-1977.125422343527
 20
184.2432317637173
 30
0.0
 10
-1976.673110240491
 20
180.1867882768577
 30
0.0
 10
-1976.158131996502
 20
176.1724810217918
 30
0.0
 10
-1975.581054105509
 20
172.2241518964932
 30
0.0
 10
-1974.94262626244
 20
168.3618064803824
 30
0.0
 10
-1974.243640345782
 20
164.6023074938001
 30
0.0
 10
-1973.484774920339
 20
160.9597991698807
 30
0.0
 10
-1972.666409312184
 20
157.4459516744244
 30
0.0
 10
-1971.788386060729
 20
154.0700836385193
 30
0.0
 10
-1970.849695463387
 20
150.8392082829439
 30
0.0
 10
-1969.848049892815
 20
147.7580552209729
 30
0.0
 10
-1968.77931705164
 20
144.8291588573401
 30
0.0
 10
-1967.636816215708
 20
142.0532106208695
 30
0.0
 10
-1966.410626852603
 20
139.4301111267753
 30
0.0
 10
-1965.087485960439
 20
136.9615701207541
 30
0.0
 10
-1963.654994212102
 20
134.6599055757414
 30
0.0
 10
-1962.108177536311
 20
132.5526255398147
 30
0.0
 10
-1960.453352640878
 20
130.6747049744622
 30
0.0
 10
-1958.703511705176
 20
129.0528614497651
 30
0.0
 10
-1956.868510837958
 20
127.696102048478
 30
0.0
 10
-1954.949854886229
 20
126.6057015669563
 30
0.0
 10
-1952.944671632606
 20
125.7748661237465
 30
0.0
 10
-1950.85557791754
 20
125.2398771265063
 30
0.0
 10
-1949.162659533381
 20
124.9880746853727
 30
0.0
 10
-1948.185180952176
 20
125.0256769273789
 30
0.0
 10
-1947.928343575911
 20
125.0355571041565
 30
0.0
  0
SPLINE
  5
B1
330
1F
100
AcDbEntity
  8
0
  6
Continuous
 62
     7
370
    15
100
AcDbSpline
210
0.0
220
0.0
230
1.0
 70
     8
 71
     3
 72
    38
 73
    34
 74
     0
 42
0.000000001
 43
0.00000001
 40
0.0
 40
0.0
 40
0.0
 40
0.0
 40
0.01835492711469
 40
0.0535719428957797
 40
0.0855554975596024
 40
0.1149069571405375
 40
0.1426019921715878
 40
0.1694181338990431
 40
0.1959005175255637
 40
0.2224395526365411
 40
0.2493648323254228
 40
0.2770068569123807
 40
0.3057358783853744
 40
0.3361807841481067
 40
0.3652333786998344
 40
0.3969178180740365
 40
0.4325559581128983
 40
0.4730105411708745
 40
0.5159801565813943
 40
0.5567895905183794
 40
0.5963523293215232
 40
0.6351813721877195
 40
0.673419722554854
 40
0.7111523451631234
 40
0.7484234162064003
 40
0.7852259591187771
 40
0.8214686880652092
 40
0.8568820433325194
 40
0.8906970152553294
 40
0.9222971104901205
 40
0.9449085805746652
 40
0.9692246981071752
 40
1.0
 40
1.0
 40
1.0
 40
1.0
 10
1106.698315052735
 20
304.5867764640179
 30
0.0
 10
1106.505617013572
 20
304.9107329258759
 30
0.0
 10
1105.943195365932
 20
305.8562543636311
 30
0.0
 10
1104.854572219692
 20
307.2523634267332
 30
0.0
 10
1103.443912358593
 20
308.7444571937838
 30
0.0
 10
1101.919796599736
 20
309.9926486793113
 30
0.0
 10
1100.281443886187
 20
311.01082054248
 30
0.0
 10
1098.519736114707
 20
311.7904684263179
 30
0.0
 10
1096.644270292725
 20
312.3100003888129
 30
0.0
 10
1094.681413023078
 20
312.5421274455065
 30
0.0
 10
1092.671632100445
 20
312.4634720304529
 30
0.0
 10
1090.66388231914
 20
312.0602420901083
 30
0.0
 10
1088.705620820288
 20
311.3297487498058
 30
0.0
 10
1086.915584605023
 20
310.3211773887357
 30
0.0
 10
1085.298029846348
 20
309.0813402557146
 30
0.0
 10
1083.827177381754
 20
307.6251448537365
 30
0.0
 10
1082.433577468992
 20
305.8726230392986
 30
0.0
 10
1081.133274807716
 20
303.8104584724255
 30
0.0
 10
1079.971455994779
 20
301.5094829213174
 30
0.0
 10
1078.958888475876
 20
299.0569920629669
 30
0.0
 10
1078.08404449612
 20
296.5170626360737
 30
0.0
 10
1077.313397030016
 20
293.8635014209612
 30
0.0
 10
1076.630878070327
 20
291.0887145721352
 30
0.0
 10
1076.028907584337
 20
288.1984535320873
 30
0.0
 10
1075.503508451371
 20
285.2046660034021
 30
0.0
 10
1075.05282065263
 20
282.1260856923108
 30
0.0
 10
1074.676395416308
 20
278.992279888198
 30
0.0
 10
1074.375044014007
 20
275.8574217996443
 30
0.0
 10
1074.14782278938
 20
272.7945229044666
 30
0.0
 10
1074.000034852132
 20
270.0781677330411
 30
0.0
 10
1073.906865125115
 20
267.6328095803395
 30
0.0
 10
1073.844663578914
 20
265.199348998893
 30
0.0
 10
1073.835991503452
 20
263.4674677113528
 30
0.0
 10
1073.831147087694
 20
262.5000000000004
 30
0.0
  0
SPLINE
  5
B2
330
1F
100
AcDbEntity
  8
0
  6
Continuous
 62
     7
370
    15
100
AcDbSpline
210
0.0
220
0.0
230
1.0
 70
     8
 71
     3
 72
    26
 73
    22
 74
     0
 42
0.000000001
 43
0.00000001
 40
0.0
 40
0.0
 40
0.0
 40
0.0
 40
0.0743416033957755
 40
0.1043436060919822
 40
0.1539459077187889
 40
0.2050526968139522
 40
0.2594003290192063
 40
0.3155029765153189
 40
0.3726939539621424
 40
0.4304093805213575
 40
0.4882034150369124
 40
0.545696997030147
 40
0.602550527566548
 40
0.6584459012490294
 40
0.7130772998080167
 40
0.7661509894593637
 40
0.8173960324910293
 40
0.8665886700051832
 40
0.9135924727069932
 40
0.958413043549401
 40
1.0
 40
1.0
 40
1.0
 40
1.0
 10
1093.831147087694
 20
262.5000000000004
 30
0.0
 10
1093.838471497064
 20
263.6379280378167
 30
0.0
 10
1093.848751814559
 20
265.2350891093475
 30
0.0
 10
1093.917080300063
 20
267.5746223238115
 30
0.0
 10
1093.998205786776
 20
269.5473972391892
 30
0.0
 10
1094.132230623716
 20
271.8559916575595
 30
0.0
 10
1094.311275366205
 20
274.2157664185763
 30
0.0
 10
1094.538940599425
 20
276.6013944196225
 30
0.0
 10
1094.813181579025
 20
278.954496356403
 30
0.0
 10
1095.130857867028
 20
281.2330029315939
 30
0.0
 10
1095.487084941213
 20
283.4008162080267
 30
0.0
 10
1095.875428681746
 20
285.4272304346924
 30
0.0
 10
1096.28783599667
 20
287.2859108593459
 30
0.0
 10
1096.714531644932
 20
288.9544689415276
 30
0.0
 10
1097.143791333973
 20
290.414312486113
 30
0.0
 10
1097.561899768224
 20
291.6510978752183
 30
0.0
 10
1097.952345780162
 20
292.6544530800146
 30
0.0
 10
1098.297819088892
 20
293.42154320197
 30
0.0
 10
1098.572705914502
 20
293.9480794716925
 30
0.0
 10
1098.767473047818
 20
294.2605819130981
 30
0.0
 10
1098.794024345655
 20
294.2951263507156
 30
0.0
 10
1098.806803182192
 20
294.3117521941787
 30
0.0
  0
SPLINE
  5
B3
330
1F
100
AcDbEntity
  8
0
  6
Continuous
 62
     7
370
    15
100
AcDbSpline
210
0.0
220
0.0
230
1.0
 70
     8
 71
     3
 72
    39
 73
    35
 74
     0
 42
0.000000001
 43
0.00000001
 40
0.0
 40
0.0
 40
0.0
 40
0.0
 40
0.0410756120804645
 40
0.0576470905791002
 40
0.0850939277224206
 40
0.1134470950146174
 40
0.1437299239212918
 40
0.175184993616578
 40
0.2075231091282469
 40
0.2405240207176113
 40
0.2740494214402215
 40
0.3080189936603936
 40
0.3424014064991431
 40
0.3772116031844699
 40
0.4125127256064027
 40
0.4484166912500587
 40
0.4850602344811359
 40
0.5224710143298571
 40
0.5599065729274293
 40
0.5951249105047411
 40
0.6271096656036346
 40
0.6564622268295544
 40
0.6841583013351817
 40
0.7109754495498135
 40
0.7374588271365987
 40
0.7639988583341558
 40
0.7909251486064802
 40
0.8185682106783851
 40
0.8472983104344618
 40
0.8777443588823766
 40
0.9067980438618247
 40
0.9384836724444756
 40
0.9741231500855764
 40
1.0
 40
1.0
 40
1.0
 40
1.0
 10
1073.831147087694
 20
167.5000000000161
 30
0.0
 10
1073.839430332322
 20
166.2084949621787
 30
0.0
 10
1073.851055355763
 20
164.3959472208638
 30
0.0
 10
1073.928497108624
 20
161.7353378602425
 30
0.0
 10
1074.020736474361
 20
159.4845801559565
 30
0.0
 10
1074.174035908188
 20
156.8352658410413
 30
0.0
 10
1074.380783988385
 20
154.1026757258206
 30
0.0
 10
1074.64730073767
 20
151.3044172600972
 30
0.0
 10
1074.974460233295
 20
148.4954667579527
 30
0.0
 10
1075.363162688603
 20
145.7112792099119
 30
0.0
 10
1075.813902693066
 20
142.9797987386757
 30
0.0
 10
1076.327471302483
 20
140.3219537775832
 30
0.0
 10
1076.90557388835
 20
137.752650731888
 30
0.0
 10
1077.551722338134
 20
135.2810884297564
 30
0.0
 10
1078.272527802579
 20
132.9108235364048
 30
0.0
 10
1079.079517954549
 20
130.6402098717789
 30
0.0
 10
1079.990984580845
 20
128.4652491908324
 30
0.0
 10
1081.028837763157
 20
126.3938610274635
 30
0.0
 10
1082.203164729986
 20
124.4691392293176
 30
0.0
 10
1083.508234423523
 20
122.7443313077095
 30
0.0
 10
1084.925077790639
 20
121.2563160769369
 30
0.0
 10
1086.447737204856
 20
120.0071640210539
 30
0.0
 10
1088.086445540569
 20
118.9892266835037
 30
0.0
 10
1089.848062925905
 20
118.209519314013
 30
0.0
 10
1091.723552765279
 20
117.6900027105849
 30
0.0
 10
1093.686402308666
 20
117.4578723664895
 30
0.0
 10
1095.6961902585
 20
117.5365255061631
 30
0.0
 10
1097.703918960626
 20
117.9397684279974
 30
0.0
 10
1099.662262434015
 20
118.6702090153972
 30
0.0
 10
1101.451978075813
 20
119.6789873232706
 30
0.0
 10
1103.070724248356
 20
120.918055161625
 30
0.0
 10
1104.536581115378
 20
122.377476268217
 30
0.0
 10
1105.76093139828
 20
123.8805040687709
 30
0.0
 10
1106.417834690925
 20
124.9583564825428
 30
0.0
 10
1106.694161132823
 20
125.4117552182832
 30
0.0
  0
SPLINE
  5
B4
330
1F
100
AcDbEntity
  8
0
  6
Continuous
 62
     7
370
    15
100
AcDbSpline
210
0.0
220
0.0
230
1.0
 70
     8
 71
     3
 72
    26
 73
    22
 74
     0
 42
0.000000001
 43
0.00000001
 40
0.0
 40
0.0
 40
0.0
 40
0.0
 40
0.0035480233581767
 40
0.0497624866168076
 40
0.0984587072465248
 40
0.1498866029389953
 40
0.2040017175004792
 40
0.2605700472146513
 40
0.319261647391349
 40
0.3797150925293832
 40
0.4415720114119953
 40
0.5044872523149814
 40
0.5681181959167534
 40
0.6320884445055656
 40
0.6958993737299014
 40
0.7586879407297134
 40
0.8183613332314265
 40
0.8709127444442304
 40
0.9115335571232113
 40
0.9581901526761608
 40
1.0
 40
1.0
 40
1.0
 40
1.0
 10
1098.802360790152
 20
135.6928902525293
 30
0.0
 10
1098.80442217275
 20
135.6905084978395
 30
0.0
 10
1098.833333911367
 20
135.6571034088911
 30
0.0
 10
1098.723789367217
 20
135.7975367709001
 30
0.0
 10
1098.51361916546
 20
136.1590745979858
 30
0.0
 10
1098.18412462916
 20
136.8139157797376
 30
0.0
 10
1097.790389638558
 20
137.740754995596
 30
0.0
 10
1097.349646513257
 20
138.9497118170975
 30
0.0
 10
1096.886304901057
 20
140.4305449570147
 30
0.0
 10
1096.418674578853
 20
142.1695984063612
 30
0.0
 10
1095.962839428644
 20
144.1469035839137
 30
0.0
 10
1095.531894453246
 20
146.3383781216295
 30
0.0
 10
1095.136629005925
 20
148.7156015947875
 30
0.0
 10
1094.785844835237
 20
151.244583568307
 30
0.0
 10
1094.486841195603
 20
153.8808428918943
 30
0.0
 10
1094.246176461656
 20
156.551914852645
 30
0.0
 10
1094.069035208191
 20
159.129208987538
 30
0.0
 10
1093.954428818857
 20
161.4206910075587
 30
0.0
 10
1093.881239475589
 20
163.5386978803481
 30
0.0
 10
1093.838840012304
 20
165.5072132575329
 30
0.0
 10
1093.833615994377
 20
166.8604507057796
 30
0.0
 10
1093.831147087694
 20
167.5000000000006
 30
0.0
  0
SPLINE
  5
BD
330
1F
100
AcDbEntity
  8
0
  6
Continuous
 62
     7
370
    15
100
AcDbSpline
210
0.0
220
0.0
230
1.0
 70
     8
 71
     3
 72
    39
 73
    35
 74
     0
 42
0.000000001
 43
0.00000001
 40
0.0
 40
0.0
 40
0.0
 40
0.0
 40
0.0410756120804645
 40
0.0576470905791002
 40
0.0850939277224205
 40
0.1134470950146174
 40
0.1437299239212918
 40
0.1751849936165779
 40
0.2075231091282468
 40
0.240524020717611
 40
0.2740494214402214
 40
0.3080189936603935
 40
0.342401406499143
 40
0.3772116031844696
 40
0.4125127256064025
 40
0.4484166912500586
 40
0.4850602344811358
 40
0.5224710143298571
 40
0.5599065729274264
 40
0.5951249105047396
 40
0.6271096656036085
 40
0.6564622268295566
 40
0.6841583013351696
 40
0.710975449549817
 40
0.7374588271365919
 40
0.7639988583341557
 40
0.790925148606475
 40
0.8185682106783848
 40
0.847298310434465
 40
0.8777443588823766
 40
0.9067980438618451
 40
0.9384836724444725
 40
0.9741231500855783
 40
0.9999999999999999
 40
0.9999999999999999
 40
0.9999999999999999
 40
0.9999999999999999
 10
1440.88296107754
 20
167.500000000016
 30
0.0
 10
1440.891244322167
 20
166.2084949621786
 30
0.0
 10
1440.90286934561
 20
164.3959472208637
 30
0.0
 10
1440.98031109847
 20
161.7353378602425
 30
0.0
 10
1441.072550464206
 20
159.4845801559564
 30
0.0
 10
1441.225849898034
 20
156.8352658410411
 30
0.0
 10
1441.432597978231
 20
154.1026757258205
 30
0.0
 10
1441.699114727516
 20
151.3044172600971
 30
0.0
 10
1442.026274223142
 20
148.4954667579527
 30
0.0
 10
1442.414976678449
 20
145.7112792099119
 30
0.0
 10
1442.865716682912
 20
142.9797987386756
 30
0.0
 10
1443.379285292329
 20
140.3219537775831
 30
0.0
 10
1443.957387878197
 20
137.7526507318879
 30
0.0
 10
1444.60353632798
 20
135.2810884297563
 30
0.0
 10
1445.324341792425
 20
132.9108235364048
 30
0.0
 10
1446.131331944395
 20
130.6402098717789
 30
0.0
 10
1447.042798570691
 20
128.4652491908323
 30
0.0
 10
1448.080651753004
 20
126.3938610274634
 30
0.0
 10
1449.254978719832
 20
124.4691392293177
 30
0.0
 10
1450.560048413369
 20
122.74433130771
 30
0.0
 10
1451.976891780484
 20
121.256316076937
 30
0.0
 10
1453.499551194702
 20
120.0071640210543
 30
0.0
 10
1455.138259530414
 20
118.9892266835036
 30
0.0
 10
1456.899876915752
 20
118.2095193140131
 30
0.0
 10
1458.775366755126
 20
117.6900027105849
 30
0.0
 10
1460.738216298512
 20
117.4578723664894
 30
0.0
 10
1462.748004248346
 20
117.5365255061631
 30
0.0
 10
1464.755732950472
 20
117.9397684279971
 30
0.0
 10
1466.714076423861
 20
118.670209015397
 30
0.0
 10
1468.503792065659
 20
119.6789873232708
 30
0.0
 10
1470.122538238204
 20
120.9180551616252
 30
0.0
 10
1471.588395105224
 20
122.3774762682171
 30
0.0
 10
1472.812745388126
 20
123.8805040687708
 30
0.0
 10
1473.469648680772
 20
124.9583564825427
 30
0.0
 10
1473.745975122669
 20
125.4117552182832
 30
0.0
  0
SPLINE
  5
BE
330
1F
100
AcDbEntity
  8
0
  6
Continuous
 62
     7
370
    15
100
AcDbSpline
210
0.0
220
0.0
230
1.0
 70
     8
 71
     3
 72
    26
 73
    22
 74
     0
 42
0.000000001
 43
0.00000001
 40
0.0
 40
0.0
 40
0.0
 40
0.0
 40
0.0035480233581477
 40
0.0497624866167879
 40
0.0984587072465038
 40
0.1498866029389532
 40
0.2040017175004497
 40
0.260570047214625
 40
0.3192616473913155
 40
0.3797150925293472
 40
0.4415720114119616
 40
0.5044872523149311
 40
0.5681181959167363
 40
0.6320884445055079
 40
0.6958993737298801
 40
0.7586879407297148
 40
0.8183613332313914
 40
0.8709127444441777
 40
0.9115335571231062
 40
0.9581901526759302
 40
1.0
 40
1.0
 40
1.0
 40
1.0
 10
1465.854174779998
 20
135.6928902525291
 30
0.0
 10
1465.856236162596
 20
135.6905084978394
 30
0.0
 10
1465.885147901215
 20
135.6571034088911
 30
0.0
 10
1465.775603357063
 20
135.7975367708998
 30
0.0
 10
1465.565433155306
 20
136.1590745979853
 30
0.0
 10
1465.235938619007
 20
136.8139157797371
 30
0.0
 10
1464.842203628404
 20
137.7407549955951
 30
0.0
 10
1464.401460503104
 20
138.9497118170966
 30
0.0
 10
1463.938118890904
 20
140.4305449570137
 30
0.0
 10
1463.470488568699
 20
142.16959840636
 30
0.0
 10
1463.01465341849
 20
144.1469035839121
 30
0.0
 10
1462.583708443093
 20
146.3383781216281
 30
0.0
 10
1462.188442995772
 20
148.7156015947857
 30
0.0
 10
1461.837658825083
 20
151.2445835683055
 30
0.0
 10
1461.538655185449
 20
153.8808428918932
 30
0.0
 10
1461.297990451502
 20
156.551914852644
 30
0.0
 10
1461.120849198037
 20
159.1292089875366
 30
0.0
 10
1461.006242808705
 20
161.4206910075558
 30
0.0
 10
1460.933053465435
 20
163.538697880342
 30
0.0
 10
1460.89065400215
 20
165.5072132575277
 30
0.0
 10
1460.885429984223
 20
166.8604507057759
 30
0.0
 10
1460.88296107754
 20
167.5000000000005
 30
0.0
  0
SPLINE
  5
BF
330
1F
100
AcDbEntity
  8
0
  6
Continuous
 62
     7
370
    15
100
AcDbSpline
210
0.0
220
0.0
230
1.0
 70
     8
 71
     3
 72
    38
 73
    34
 74
     0
 42
0.000000001
 43
0.00000001
 40
0.0
 40
0.0
 40
0.0
 40
0.0
 40
0.0183549271148662
 40
0.0535719428959504
 40
0.0855554975597413
 40
0.1149069571406566
 40
0.1426019921717073
 40
0.1694181338991682
 40
0.1959005175256812
 40
0.2224395526366677
 40
0.2493648323255463
 40
0.2770068569125064
 40
0.305735878385505
 40
0.3361807841482684
 40
0.3652333786999949
 40
0.3969178180742043
 40
0.4325559581130635
 40
0.4730105411710829
 40
0.5159801565815909
 40
0.5567895905185619
 40
0.596352329321677
 40
0.6351813721878726
 40
0.6734197225550047
 40
0.7111523451632757
 40
0.7484234162065225
 40
0.7852259591189044
 40
0.8214686880653241
 40
0.8568820433326323
 40
0.890697015255456
 40
0.9222971104901938
 40
0.9449085805746784
 40
0.9692246981071064
 40
0.9999999999999999
 40
0.9999999999999999
 40
0.9999999999999999
 40
0.9999999999999999
 10
1473.750129042581
 20
304.5867764640178
 30
0.0
 10
1473.557431003416
 20
304.9107329258788
 30
0.0
 10
1472.995009355774
 20
305.856254363637
 30
0.0
 10
1471.906386209531
 20
307.2523634267411
 30
0.0
 10
1470.495726348432
 20
308.7444571937903
 30
0.0
 10
1468.971610589575
 20
309.9926486793166
 30
0.0
 10
1467.333257876026
 20
311.0108205424841
 30
0.0
 10
1465.571550104544
 20
311.7904684263208
 30
0.0
 10
1463.696084282563
 20
312.3100003888147
 30
0.0
 10
1461.733227012915
 20
312.5421274455068
 30
0.0
 10
1459.723446090282
 20
312.4634720304518
 30
0.0
 10
1457.715696308977
 20
312.0602420901055
 30
0.0
 10
1455.757434810125
 20
311.3297487498015
 30
0.0
 10
1453.967398594861
 20
310.3211773887299
 30
0.0
 10
1452.349843836187
 20
309.0813402557075
 30
0.0
 10
1450.878991371593
 20
307.6251448537284
 30
0.0
 10
1449.485391458833
 20
305.8726230392895
 30
0.0
 10
1448.185088797557
 20
303.8104584724153
 30
0.0
 10
1447.02326998462
 20
301.5094829213061
 30
0.0
 10
1446.010702465718
 20
299.056992062956
 30
0.0
 10
1445.135858485963
 20
296.5170626360628
 30
0.0
 10
1444.36521101986
 20
293.8635014209504
 30
0.0
 10
1443.68269206017
 20
291.088714572124
 30
0.0
 10
1443.08072157418
 20
288.1984535320758
 30
0.0
 10
1442.555322441216
 20
285.2046660033911
 30
0.0
 10
1442.104634642475
 20
282.1260856923003
 30
0.0
 10
1441.728209406154
 20
278.9922798881876
 30
0.0
 10
1441.426858003853
 20
275.8574217996335
 30
0.0
 10
1441.199636779226
 20
272.7945229044569
 30
0.0
 10
1441.051848841978
 20
270.0781677330345
 30
0.0
 10
1440.958679114962
 20
267.632809580339
 30
0.0
 10
1440.896477568761
 20
265.1993489988945
 30
0.0
 10
1440.887805493298
 20
263.4674677113549
 30
0.0
 10
1440.88296107754
 20
262.5000000000004
 30
0.0
  0
SPLINE
  5
C0
330
1F
100
AcDbEntity
  8
0
  6
Continuous
 62
     7
370
    15
100
AcDbSpline
210
0.0
220
0.0
230
1.0
 70
     8
 71
     3
 72
    26
 73
    22
 74
     0
 42
0.000000001
 43
0.00000001
 40
0.0
 40
0.0
 40
0.0
 40
0.0
 40
0.0743416033958046
 40
0.1043436060920292
 40
0.1539459077188528
 40
0.2050526968140378
 40
0.2594003290193593
 40
0.315502976515422
 40
0.3726939539622848
 40
0.4304093805215045
 40
0.4882034150370456
 40
0.5456969970303029
 40
0.6025505275667584
 40
0.6584459012492093
 40
0.7130772998081623
 40
0.7661509894595323
 40
0.8173960324911798
 40
0.8665886700053343
 40
0.9135924727071261
 40
0.9584130435495323
 40
0.9999999999999999
 40
0.9999999999999999
 40
0.9999999999999999
 40
0.9999999999999999
 10
1460.88296107754
 20
262.5000000000003
 30
0.0
 10
1460.89028548691
 20
263.6379280378171
 30
0.0
 10
1460.900565804406
 20
265.2350891093487
 30
0.0
 10
1460.968894289909
 20
267.5746223238134
 30
0.0
 10
1461.050019776623
 20
269.547397239192
 30
0.0
 10
1461.184044613562
 20
271.8559916575635
 30
0.0
 10
1461.363089356052
 20
274.2157664185811
 30
0.0
 10
1461.590754589271
 20
276.6013944196276
 30
0.0
 10
1461.864995568872
 20
278.9544963564081
 30
0.0
 10
1462.182671856875
 20
281.233002931599
 30
0.0
 10
1462.538898931061
 20
283.4008162080318
 30
0.0
 10
1462.927242671592
 20
285.4272304346976
 30
0.0
 10
1463.339649986518
 20
287.2859108593513
 30
0.0
 10
1463.766345634781
 20
288.9544689415326
 30
0.0
 10
1464.195605323819
 20
290.4143124861166
 30
0.0
 10
1464.613713758072
 20
291.6510978752216
 30
0.0
 10
1465.004159770009
 20
292.6544530800172
 30
0.0
 10
1465.349633078739
 20
293.4215432019718
 30
0.0
 10
1465.624519904349
 20
293.9480794716936
 30
0.0
 10
1465.819287037665
 20
294.2605819130985
 30
0.0
 10
1465.845838335501
 20
294.2951263507156
 30
0.0
 10
1465.858617172038
 20
294.3117521941784
 30
0.0
  0
SPLINE
  5
C5
330
1F
100
AcDbEntity
  8
0
  6
Continuous
 62
     7
370
    15
100
AcDbSpline
210
0.0
220
0.0
230
1.0
 70
     8
 71
     3
 72
    38
 73
    34
 74
     0
 42
0.000000001
 43
0.00000001
 40
0.0
 40
0.0
 40
0.0
 40
0.0
 40
0.0183549271148459
 40
0.0535719428959042
 40
0.0855554975596816
 40
0.1149069571406351
 40
0.1426019921716727
 40
0.1694181338991394
 40
0.1959005175256455
 40
0.2224395526366338
 40
0.249364832325503
 40
0.2770068569124597
 40
0.3057358783854625
 40
0.3361807841482037
 40
0.3652333786999458
 40
0.3969178180741535
 40
0.4325559581129911
 40
0.4730105411710187
 40
0.5159801565815376
 40
0.556789590518502
 40
0.5963523293216374
 40
0.6351813721878241
 40
0.6734197225549453
 40
0.7111523451632179
 40
0.7484234162064877
 40
0.7852259591188616
 40
0.821468688065295
 40
0.8568820433326081
 40
0.8906970152554301
 40
0.9222971104901931
 40
0.9449085805747179
 40
0.9692246981072442
 40
1.0
 40
1.0
 40
1.0
 40
1.0
 10
-1250.160701092594
 20
304.5867764640184
 30
0.0
 10
-1250.353399131759
 20
304.9107329258792
 30
0.0
 10
-1250.915820779401
 20
305.8562543636365
 30
0.0
 10
-1252.004443925641
 20
307.2523634267396
 30
0.0
 10
-1253.415103786741
 20
308.7444571937888
 30
0.0
 10
-1254.939219545598
 20
309.9926486793156
 30
0.0
 10
-1256.577572259147
 20
311.0108205424839
 30
0.0
 10
-1258.339280030629
 20
311.7904684263207
 30
0.0
 10
-1260.21474585261
 20
312.3100003888148
 30
0.0
 10
-1262.177603122257
 20
312.5421274455074
 30
0.0
 10
-1264.187384044891
 20
312.4634720304526
 30
0.0
 10
-1266.195133826194
 20
312.0602420901074
 30
0.0
 10
-1268.153395325047
 20
311.3297487498037
 30
0.0
 10
-1269.943431540311
 20
310.3211773887328
 30
0.0
 10
-1271.560986298986
 20
309.0813402557104
 30
0.0
 10
-1273.03183876358
 20
307.6251448537319
 30
0.0
 10
-1274.42543867634
 20
305.8726230392933
 30
0.0
 10
-1275.725741337616
 20
303.8104584724196
 30
0.0
 10
-1276.887560150553
 20
301.5094829213102
 30
0.0
 10
-1277.900127669455
 20
299.05699206296
 30
0.0
 10
-1278.774971649212
 20
296.5170626360667
 30
0.0
 10
-1279.545619115315
 20
293.8635014209545
 30
0.0
 10
-1280.228138075003
 20
291.0887145721288
 30
0.0
 10
-1280.830108560994
 20
288.1984535320807
 30
0.0
 10
-1281.355507693959
 20
285.2046660033955
 30
0.0
 10
-1281.8061954927
 20
282.126085692304
 30
0.0
 10
-1282.182620729021
 20
278.9922798881911
 30
0.0
 10
-1282.483972131322
 20
275.8574217996367
 30
0.0
 10
-1282.711193355949
 20
272.794522904459
 30
0.0
 10
-1282.858981293198
 20
270.0781677330349
 30
0.0
 10
-1282.952151020213
 20
267.632809580334
 30
0.0
 10
-1283.014352566415
 20
265.1993489988898
 30
0.0
 10
-1283.023024641877
 20
263.4674677113512
 30
0.0
 10
-1283.027869057635
 20
262.500000000001
 30
0.0
  0
SPLINE
  5
C6
330
1F
100
AcDbEntity
  8
0
  6
Continuous
 62
     7
370
    15
100
AcDbSpline
210
0.0
220
0.0
230
1.0
 70
     8
 71
     3
 72
    26
 73
    22
 74
     0
 42
0.000000001
 43
0.00000001
 40
0.0
 40
0.0
 40
0.0
 40
0.0
 40
0.074341603395814
 40
0.1043436060920397
 40
0.1539459077188678
 40
0.2050526968140209
 40
0.2594003290193173
 40
0.3155029765154314
 40
0.3726939539622407
 40
0.4304093805214513
 40
0.4882034150369975
 40
0.545696997030244
 40
0.6025505275666986
 40
0.6584459012491439
 40
0.7130772998081534
 40
0.7661509894595112
 40
0.8173960324911695
 40
0.8665886700053277
 40
0.9135924727071041
 40
0.9584130435495106
 40
1.0
 40
1.0
 40
1.0
 40
1.0
 10
-1263.027869057635
 20
262.5000000000011
 30
0.0
 10
-1263.020544648266
 20
263.637928037818
 30
0.0
 10
-1263.01026433077
 20
265.2350891093497
 30
0.0
 10
-1262.941935845266
 20
267.5746223238148
 30
0.0
 10
-1262.860810358553
 20
269.5473972391928
 30
0.0
 10
-1262.726785521612
 20
271.8559916575638
 30
0.0
 10
-1262.547740779124
 20
274.2157664185811
 30
0.0
 10
-1262.320075545904
 20
276.6013944196276
 30
0.0
 10
-1262.045834566303
 20
278.9544963564077
 30
0.0
 10
-1261.7281582783
 20
281.2330029315981
 30
0.0
 10
-1261.371931204116
 20
283.4008162080308
 30
0.0
 10
-1260.983587463583
 20
285.4272304346966
 30
0.0
 10
-1260.571180148658
 20
287.2859108593504
 30
0.0
 10
-1260.144484500396
 20
288.9544689415321
 30
0.0
 10
-1259.715224811355
 20
290.4143124861167
 30
0.0
 10
-1259.297116377104
 20
291.6510978752221
 30
0.0
 10
-1258.906670365167
 20
292.6544530800176
 30
0.0
 10
-1258.561197056435
 20
293.4215432019724
 30
0.0
 10
-1258.286310230827
 20
293.9480794716941
 30
0.0
 10
-1258.091543097511
 20
294.2605819130991
 30
0.0
 10
-1258.064991799674
 20
294.2951263507162
 30
0.0
 10
-1258.052212963137
 20
294.3117521941792
 30
0.0
  0
SPLINE
  5
C7
330
1F
100
AcDbEntity
  8
0
  6
Continuous
 62
     7
370
    15
100
AcDbSpline
210
0.0
220
0.0
230
1.0
 70
     8
 71
     3
 72
    39
 73
    35
 74
     0
 42
0.000000001
 43
0.00000001
 40
0.0
 40
0.0
 40
0.0
 40
0.0
 40
0.0410756120804635
 40
0.0576470905790875
 40
0.0850939277223195
 40
0.1134470950145618
 40
0.1437299239212204
 40
0.17518499361651
 40
0.2075231091281944
 40
0.2405240207175734
 40
0.2740494214401701
 40
0.3080189936603452
 40
0.3424014064990779
 40
0.3772116031843952
 40
0.4125127256063029
 40
0.4484166912500039
 40
0.4850602344810694
 40
0.5224710143297909
 40
0.5599065729273732
 40
0.595124910504684
 40
0.6271096656035796
 40
0.6564622268295228
 40
0.6841583013351484
 40
0.710975449549788
 40
0.7374588271365796
 40
0.7639988583341358
 40
0.7909251486064538
 40
0.8185682106783605
 40
0.8472983104344393
 40
0.8777443588823477
 40
0.9067980438617963
 40
0.9384836724444457
 40
0.9741231500855468
 40
1.0
 40
1.0
 40
1.0
 40
1.0
 10
-1283.027869057635
 20
167.5000000000166
 30
0.0
 10
-1283.019585813008
 20
166.2084949621793
 30
0.0
 10
-1283.007960789565
 20
164.3959472208648
 30
0.0
 10
-1282.930519036706
 20
161.7353378602467
 30
0.0
 10
-1282.838279670969
 20
159.4845801559623
 30
0.0
 10
-1282.684980237142
 20
156.8352658410489
 30
0.0
 10
-1282.478232156944
 20
154.102675725827
 30
0.0
 10
-1282.21171540766
 20
151.3044172601034
 30
0.0
 10
-1281.884555912034
 20
148.4954667579577
 30
0.0
 10
-1281.495853456727
 20
145.7112792099165
 30
0.0
 10
-1281.045113452264
 20
142.9797987386799
 30
0.0
 10
-1280.531544842847
 20
140.3219537775881
 30
0.0
 10
-1279.95344225698
 20
137.7526507318932
 30
0.0
 10
-1279.307293807196
 20
135.2810884297627
 30
0.0
 10
-1278.586488342752
 20
132.9108235364102
 30
0.0
 10
-1277.779498190782
 20
130.6402098717841
 30
0.0
 10
-1276.868031564486
 20
128.4652491908365
 30
0.0
 10
-1275.830178382173
 20
126.3938610274676
 30
0.0
 10
-1274.655851415345
 20
124.4691392293213
 30
0.0
 10
-1273.350781721808
 20
122.7443313077128
 30
0.0
 10
-1271.933938354693
 20
121.2563160769396
 30
0.0
 10
-1270.411278940475
 20
120.007164021056
 30
0.0
 10
-1268.772570604763
 20
118.9892266835054
 30
0.0
 10
-1267.010953219425
 20
118.2095193140143
 30
0.0
 10
-1265.135463380051
 20
117.6900027105859
 30
0.0
 10
-1263.172613836665
 20
117.4578723664902
 30
0.0
 10
-1261.162825886831
 20
117.5365255061637
 30
0.0
 10
-1259.155097184706
 20
117.9397684279974
 30
0.0
 10
-1257.196753711316
 20
118.670209015397
 30
0.0
 10
-1255.407038069518
 20
119.6789873232702
 30
0.0
 10
-1253.788291896974
 20
120.9180551616244
 30
0.0
 10
-1252.322435029953
 20
122.3774762682163
 30
0.0
 10
-1251.09808474705
 20
123.8805040687706
 30
0.0
 10
-1250.441181454404
 20
124.9583564825429
 30
0.0
 10
-1250.164855012506
 20
125.4117552182839
 30
0.0
  0
SPLINE
  5
C8
330
1F
100
AcDbEntity
  8
0
  6
Continuous
 62
     7
370
    15
100
AcDbSpline
210
0.0
220
0.0
230
1.0
 70
     8
 71
     3
 72
    26
 73
    22
 74
     0
 42
0.000000001
 43
0.00000001
 40
0.0
 40
0.0
 40
0.0
 40
0.0
 40
0.0035480233580944
 40
0.049762486616734
 40
0.0984587072464362
 40
0.1498866029388801
 40
0.204001717500363
 40
0.2605700472145299
 40
0.3192616473912159
 40
0.379715092529229
 40
0.4415720114118335
 40
0.5044872523147991
 40
0.5681181959165652
 40
0.6320884445053526
 40
0.6958993737297182
 40
0.7586879407295336
 40
0.818361333231267
 40
0.8709127444440892
 40
0.9115335571230269
 40
0.9581901526758186
 40
1.0
 40
1.0
 40
1.0
 40
1.0
 10
-1258.056655355177
 20
135.6928902525297
 30
0.0
 10
-1258.054593972579
 20
135.6905084978401
 30
0.0
 10
-1258.025682233962
 20
135.6571034088917
 30
0.0
 10
-1258.135226778111
 20
135.7975367709003
 30
0.0
 10
-1258.345396979868
 20
136.1590745979854
 30
0.0
 10
-1258.674891516168
 20
136.8139157797367
 30
0.0
 10
-1259.06862650677
 20
137.7407549955941
 30
0.0
 10
-1259.509369632071
 20
138.9497118170952
 30
0.0
 10
-1259.972711244271
 20
140.4305449570114
 30
0.0
 10
-1260.440341566475
 20
142.1695984063572
 30
0.0
 10
-1260.896176716684
 20
144.1469035839086
 30
0.0
 10
-1261.327121692082
 20
146.3383781216235
 30
0.0
 10
-1261.722387139403
 20
148.7156015947804
 30
0.0
 10
-1262.073171310091
 20
151.2445835682996
 30
0.0
 10
-1262.372174949725
 20
153.8808428918867
 30
0.0
 10
-1262.612839683673
 20
156.551914852638
 30
0.0
 10
-1262.789980937138
 20
159.1292089875314
 30
0.0
 10
-1262.90458732647
 20
161.4206910075521
 30
0.0
 10
-1262.97777666974
 20
163.5386978803386
 30
0.0
 10
-1263.020176133025
 20
165.5072132575254
 30
0.0
 10
-1263.025400150953
 20
166.860450705775
 30
0.0
 10
-1263.027869057635
 20
167.5000000000012
 30
0.0
  0
SPLINE
  5
CF
330
1F
100
AcDbEntity
  8
0
  6
Continuous
 62
     7
370
    15
100
AcDbSpline
210
0.0
220
0.0
230
1.0
 70
     8
 71
     3
 72
    38
 73
    34
 74
     0
 42
0.000000001
 43
0.00000001
 40
0.0
 40
0.0
 40
0.0
 40
0.0
 40
0.0183549271147327
 40
0.0535719428958173
 40
0.0855554975595847
 40
0.1149069571405569
 40
0.1426019921716074
 40
0.1694181338990669
 40
0.1959005175255717
 40
0.2224395526365646
 40
0.249364832325435
 40
0.2770068569123925
 40
0.3057358783853859
 40
0.3361807841481272
 40
0.365233378699864
 40
0.3969178180740578
 40
0.4325559581129439
 40
0.4730105411709385
 40
0.5159801565814637
 40
0.5567895905184282
 40
0.596352329321567
 40
0.6351813721877565
 40
0.6734197225548885
 40
0.7111523451631537
 40
0.7484234162064292
 40
0.7852259591188081
 40
0.8214686880652451
 40
0.8568820433325568
 40
0.8906970152553793
 40
0.9222971104901573
 40
0.9449085805746912
 40
0.9692246981071987
 40
1.0
 40
1.0
 40
1.0
 40
1.0
 10
-1617.212515082441
 20
304.5867764640186
 30
0.0
 10
-1617.405213121604
 20
304.9107329258773
 30
0.0
 10
-1617.967634769245
 20
305.8562543636333
 30
0.0
 10
-1619.056257915484
 20
307.252363426735
 30
0.0
 10
-1620.466917776584
 20
308.7444571937853
 30
0.0
 10
-1621.99103353544
 20
309.9926486793125
 30
0.0
 10
-1623.629386248989
 20
311.0108205424816
 30
0.0
 10
-1625.391094020471
 20
311.7904684263192
 30
0.0
 10
-1627.266559842451
 20
312.3100003888138
 30
0.0
 10
-1629.229417112098
 20
312.5421274455074
 30
0.0
 10
-1631.239198034732
 20
312.4634720304534
 30
0.0
 10
-1633.246947816036
 20
312.0602420901089
 30
0.0
 10
-1635.205209314889
 20
311.329748749806
 30
0.0
 10
-1636.995245530153
 20
310.3211773887359
 30
0.0
 10
-1638.612800288828
 20
309.0813402557142
 30
0.0
 10
-1640.083652753424
 20
307.6251448537355
 30
0.0
 10
-1641.477252666185
 20
305.8726230392972
 30
0.0
 10
-1642.777555327461
 20
303.8104584724231
 30
0.0
 10
-1643.939374140398
 20
301.5094829213148
 30
0.0
 10
-1644.9519416593
 20
299.0569920629645
 30
0.0
 10
-1645.826785639057
 20
296.5170626360715
 30
0.0
 10
-1646.59743310516
 20
293.8635014209592
 30
0.0
 10
-1647.279952064849
 20
291.0887145721335
 30
0.0
 10
-1647.88192255084
 20
288.1984535320856
 30
0.0
 10
-1648.407321683804
 20
285.2046660034003
 30
0.0
 10
-1648.858009482546
 20
282.1260856923088
 30
0.0
 10
-1649.234434718868
 20
278.9922798881958
 30
0.0
 10
-1649.535786121168
 20
275.8574217996414
 30
0.0
 10
-1649.763007345795
 20
272.7945229044634
 30
0.0
 10
-1649.910795283043
 20
270.0781677330384
 30
0.0
 10
-1650.003965010061
 20
267.6328095803377
 30
0.0
 10
-1650.06616655626
 20
265.199348998892
 30
0.0
 10
-1650.074838631723
 20
263.4674677113526
 30
0.0
 10
-1650.079683047481
 20
262.5000000000011
 30
0.0
  0
SPLINE
  5
D0
330
1F
100
AcDbEntity
  8
0
  6
Continuous
 62
     7
370
    15
100
AcDbSpline
210
0.0
220
0.0
230
1.0
 70
     8
 71
     3
 72
    26
 73
    22
 74
     0
 42
0.000000001
 43
0.00000001
 40
0.0
 40
0.0
 40
0.0
 40
0.0
 40
0.074341603395803
 40
0.1043436060920274
 40
0.1539459077188922
 40
0.2050526968140273
 40
0.2594003290193609
 40
0.3155029765154732
 40
0.37269395396227
 40
0.4304093805214554
 40
0.4882034150370048
 40
0.545696997030252
 40
0.6025505275667115
 40
0.6584459012491576
 40
0.7130772998081424
 40
0.7661509894595224
 40
0.8173960324911664
 40
0.8665886700053098
 40
0.9135924727070994
 40
0.9584130435494982
 40
0.9999999999999999
 40
0.9999999999999999
 40
0.9999999999999999
 40
0.9999999999999999
 10
-1630.079683047481
 20
262.5000000000013
 30
0.0
 10
-1630.072358638112
 20
263.6379280378179
 30
0.0
 10
-1630.062078320616
 20
265.2350891093496
 30
0.0
 10
-1629.993749835112
 20
267.5746223238149
 30
0.0
 10
-1629.9126243484
 20
269.5473972391932
 30
0.0
 10
-1629.778599511459
 20
271.8559916575651
 30
0.0
 10
-1629.599554768971
 20
274.2157664185826
 30
0.0
 10
-1629.371889535751
 20
276.6013944196293
 30
0.0
 10
-1629.097648556149
 20
278.9544963564089
 30
0.0
 10
-1628.779972268147
 20
281.2330029315987
 30
0.0
 10
-1628.423745193961
 20
283.4008162080311
 30
0.0
 10
-1628.03540145343
 20
285.4272304346972
 30
0.0
 10
-1627.622994138504
 20
287.2859108593506
 30
0.0
 10
-1627.196298490242
 20
288.9544689415324
 30
0.0
 10
-1626.767038801202
 20
290.4143124861169
 30
0.0
 10
-1626.34893036695
 20
291.6510978752221
 30
0.0
 10
-1625.958484355014
 20
292.6544530800178
 30
0.0
 10
-1625.613011046283
 20
293.4215432019726
 30
0.0
 10
-1625.338124220674
 20
293.9480794716941
 30
0.0
 10
-1625.143357087358
 20
294.2605819130992
 30
0.0
 10
-1625.116805789521
 20
294.2951263507163
 30
0.0
 10
-1625.104026952984
 20
294.3117521941792
 30
0.0
  0
SPLINE
  5
D3
330
1F
100
AcDbEntity
  8
0
  6
Continuous
 62
     7
370
    15
100
AcDbSpline
210
0.0
220
0.0
230
1.0
 70
     8
 71
     3
 72
    39
 73
    35
 74
     0
 42
0.000000001
 43
0.00000001
 40
0.0
 40
0.0
 40
0.0
 40
0.0
 40
0.0410756120804635
 40
0.0576470905790744
 40
0.0850939277223036
 40
0.1134470950145434
 40
0.1437299239212205
 40
0.1751849936164881
 40
0.2075231091281646
 40
0.2405240207175441
 40
0.2740494214401396
 40
0.308018993660325
 40
0.3424014064990625
 40
0.3772116031843811
 40
0.4125127256062911
 40
0.4484166912499763
 40
0.4850602344810343
 40
0.5224710143297615
 40
0.559906572927364
 40
0.59512491050466
 40
0.6271096656035451
 40
0.6564622268294826
 40
0.6841583013350877
 40
0.7109754495497351
 40
0.7374588271365298
 40
0.7639988583340811
 40
0.7909251486063986
 40
0.8185682106783022
 40
0.8472983104343759
 40
0.8777443588822836
 40
0.9067980438617034
 40
0.9384836724443385
 40
0.974123150085412
 40
1.0
 40
1.0
 40
1.0
 40
1.0
 10
-1650.079683047481
 20
167.5000000000167
 30
0.0
 10
-1650.071399802854
 20
166.2084949621794
 30
0.0
 10
-1650.059774779412
 20
164.3959472208653
 30
0.0
 10
-1649.982333026551
 20
161.7353378602477
 30
0.0
 10
-1649.890093660815
 20
159.4845801559639
 30
0.0
 10
-1649.736794226988
 20
156.8352658410499
 30
0.0
 10
-1649.53004614679
 20
154.1026757258284
 30
0.0
 10
-1649.263529397507
 20
151.3044172601051
 30
0.0
 10
-1648.93636990188
 20
148.4954667579602
 30
0.0
 10
-1648.547667446573
 20
145.711279209919
 30
0.0
 10
-1648.096927442111
 20
142.9797987386821
 30
0.0
 10
-1647.583358832694
 20
140.3219537775898
 30
0.0
 10
-1647.005256246826
 20
137.7526507318944
 30
0.0
 10
-1646.359107797043
 20
135.2810884297637
 30
0.0
 10
-1645.638302332598
 20
132.9108235364115
 30
0.0
 10
-1644.831312180629
 20
130.6402098717858
 30
0.0
 10
-1643.919845554332
 20
128.4652491908384
 30
0.0
 10
-1642.88199237202
 20
126.393861027469
 30
0.0
 10
-1641.707665405192
 20
124.4691392293225
 30
0.0
 10
-1640.402595711655
 20
122.7443313077139
 30
0.0
 10
-1638.985752344541
 20
121.2563160769412
 30
0.0
 10
-1637.463092930323
 20
120.0071640210578
 30
0.0
 10
-1635.824384594613
 20
118.9892266835072
 30
0.0
 10
-1634.062767209275
 20
118.2095193140157
 30
0.0
 10
-1632.187277369902
 20
117.6900027105868
 30
0.0
 10
-1630.224427826515
 20
117.4578723664904
 30
0.0
 10
-1628.214639876681
 20
117.5365255061633
 30
0.0
 10
-1626.206911174556
 20
117.9397684279963
 30
0.0
 10
-1624.248567701166
 20
118.6702090153953
 30
0.0
 10
-1622.458852059368
 20
119.6789873232676
 30
0.0
 10
-1620.840105886825
 20
120.9180551616207
 30
0.0
 10
-1619.374249019804
 20
122.3774762682111
 30
0.0
 10
-1618.149898736898
 20
123.8805040687667
 30
0.0
 10
-1617.492995444252
 20
124.9583564825407
 30
0.0
 10
-1617.216669002352
 20
125.411755218284
 30
0.0
  0
SPLINE
  5
D4
330
1F
100
AcDbEntity
  8
0
  6
Continuous
 62
     7
370
    15
100
AcDbSpline
210
0.0
220
0.0
230
1.0
 70
     8
 71
     3
 72
    26
 73
    22
 74
     0
 42
0.000000001
 43
0.00000001
 40
0.0
 40
0.0
 40
0.0
 40
0.0
 40
0.003548023358167
 40
0.0497624866168172
 40
0.0984587072465193
 40
0.1498866029389744
 40
0.2040017175004605
 40
0.2605700472146134
 40
0.3192616473913164
 40
0.3797150925293409
 40
0.4415720114119693
 40
0.5044872523149466
 40
0.5681181959167321
 40
0.6320884445055416
 40
0.6958993737299101
 40
0.758687940729715
 40
0.8183613332314285
 40
0.8709127444442323
 40
0.9115335571232133
 40
0.958190152676214
 40
1.0
 40
1.0
 40
1.0
 40
1.0
 10
-1625.108469345024
 20
135.69289025253
 30
0.0
 10
-1625.106407962426
 20
135.6905084978403
 30
0.0
 10
-1625.077496223808
 20
135.657103408892
 30
0.0
 10
-1625.187040767958
 20
135.7975367709008
 30
0.0
 10
-1625.397210969715
 20
136.1590745979865
 30
0.0
 10
-1625.726705506015
 20
136.8139157797382
 30
0.0
 10
-1626.120440496617
 20
137.7407549955961
 30
0.0
 10
-1626.561183621918
 20
138.9497118170974
 30
0.0
 10
-1627.024525234119
 20
140.4305449570143
 30
0.0
 10
-1627.492155556322
 20
142.1695984063608
 30
0.0
 10
-1627.947990706532
 20
144.1469035839133
 30
0.0
 10
-1628.378935681929
 20
146.338378121629
 30
0.0
 10
-1628.774201129251
 20
148.7156015947872
 30
0.0
 10
-1629.124985299938
 20
151.2445835683071
 30
0.0
 10
-1629.423988939573
 20
153.8808428918948
 30
0.0
 10
-1629.664653673519
 20
156.5519148526458
 30
0.0
 10
-1629.841794926985
 20
159.1292089875388
 30
0.0
 10
-1629.956401316318
 20
161.4206910075596
 30
0.0
 10
-1630.029590659586
 20
163.5386978803496
 30
0.0
 10
-1630.071990122872
 20
165.5072132575345
 30
0.0
 10
-1630.077214140799
 20
166.8604507057811
 30
0.0
 10
-1630.079683047481
 20
167.5000000000013
 30
0.0
  0
SPLINE
  5
F1
330
1F
100
AcDbEntity
  8
0
  6
Continuous
 62
     7
370
    15
100
AcDbSpline
210
0.0
220
0.0
230
1.0
 70
    11
 71
     3
 72
   118
 73
   114
 74
     0
 42
0.000000001
 43
0.00000001
 40
0.0
 40
0.0
 40
0.0
 40
0.0
 40
0.0312499999999987
 40
0.0312499999999987
 40
0.0468749999999982
 40
0.0468749999999982
 40
0.054687499999998
 40
0.054687499999998
 40
0.0624999999999978
 40
0.0624999999999978
 40
0.093749999999997
 40
0.093749999999997
 40
0.101562499999997
 40
0.101562499999997
 40
0.1093749999999969
 40
0.1093749999999969
 40
0.1249999999999966
 40
0.1249999999999966
 40
0.1562499999999968
 40
0.1562499999999968
 40
0.171874999999997
 40
0.171874999999997
 40
0.1874999999999972
 40
0.1874999999999972
 40
0.2031249999999973
 40
0.2031249999999973
 40
0.2187499999999975
 40
0.2187499999999975
 40
0.2499999999999979
 40
0.2499999999999979
 40
0.2656249999999983
 40
0.2656249999999983
 40
0.2812499999999988
 40
0.2812499999999988
 40
0.3125000000000002
 40
0.3125000000000002
 40
0.3203125000000006
 40
0.3203125000000006
 40
0.328125000000001
 40
0.328125000000001
 40
0.3437500000000021
 40
0.3437500000000021
 40
0.3593750000000031
 40
0.3593750000000031
 40
0.3750000000000042
 40
0.3750000000000042
 40
0.4062500000000067
 40
0.4062500000000067
 40
0.4218750000000075
 40
0.4218750000000075
 40
0.4375000000000083
 40
0.4375000000000083
 40
0.4687500000000105
 40
0.4687500000000105
 40
0.4843750000000115
 40
0.4843750000000115
 40
0.5000000000000127
 40
0.5000000000000127
 40
0.5312500000000153
 40
0.5312500000000153
 40
0.5468750000000165
 40
0.5468750000000165
 40
0.5546875000000168
 40
0.5546875000000168
 40
0.562500000000017
 40
0.562500000000017
 40
0.5937500000000171
 40
0.5937500000000171
 40
0.601562500000017
 40
0.601562500000017
 40
0.6093750000000169
 40
0.6093750000000169
 40
0.6250000000000163
 40
0.6250000000000163
 40
0.6562500000000155
 40
0.6562500000000155
 40
0.671875000000015
 40
0.671875000000015
 40
0.6875000000000144
 40
0.6875000000000144
 40
0.7031250000000139
 40
0.7031250000000139
 40
0.7187500000000133
 40
0.7187500000000133
 40
0.750000000000012
 40
0.750000000000012
 40
0.7656250000000111
 40
0.7656250000000111
 40
0.7812500000000102
 40
0.7812500000000102
 40
0.8125000000000081
 40
0.8125000000000081
 40
0.8203125000000079
 40
0.8203125000000079
 40
0.8281250000000077
 40
0.8281250000000077
 40
0.8437500000000068
 40
0.8437500000000068
 40
0.8593750000000059
 40
0.8593750000000059
 40
0.875000000000005
 40
0.875000000000005
 40
0.9062500000000032
 40
0.9062500000000032
 40
0.9218750000000026
 40
0.9218750000000026
 40
0.9375000000000019
 40
0.9375000000000019
 40
0.9687500000000007
 40
0.9687500000000007
 40
0.9843750000000003
 40
0.9843750000000003
 40
1.0
 40
1.0
 40
1.0
 40
1.0
 10
-192.8210436464166
 20
187.4999999999999
 30
0.0
 10
-194.5869086969497
 20
187.4999999999999
 30
0.0
 10
-196.3361563295848
 20
187.6804635666359
 30
0.0
 10
-198.9351587390093
 20
188.2091288363252
 30
0.0
 10
-199.7972954159996
 20
188.4286752581994
 30
0.0
 10
-201.0837327702001
 20
188.8243213754652
 30
0.0
 10
-201.5126223664246
 20
188.967739111277
 30
0.0
 10
-202.3605750486482
 20
189.2744215959792
 30
0.0
 10
-202.779750298918
 20
189.4376362450007
 30
0.0
 10
-204.8520164689851
 20
190.3020394501552
 30
0.0
 10
-206.4350321523408
 20
191.1467364924911
 30
0.0
 10
-208.3188352423921
 20
192.392873444423
 30
0.0
 10
-208.6908003590889
 20
192.6517063071027
 30
0.0
 10
-209.4249082305882
 20
193.1889307154789
 30
0.0
 10
-209.7867767173887
 20
193.4672114754611
 30
0.0
 10
-210.8460734226763
 20
194.3225342438833
 30
0.0
 10
-211.5211976994877
 20
194.9228093678763
 30
0.0
 10
-213.4547896839017
 20
196.8121897632843
 30
0.0
 10
-214.6224522721068
 20
198.1889104232677
 30
0.0
 10
-216.1802998455875
 20
200.4399283894997
 30
0.0
 10
-216.6604847864735
 20
201.2123558774231
 30
0.0
 10
-217.5378547440705
 20
202.7907239672714
 30
0.0
 10
-217.9361264109155
 20
203.5982344658329
 30
0.0
 10
-218.6514585336517
 20
205.2500949153592
 30
0.0
 10
-218.9685240710553
 20
206.0944425416942
 30
0.0
 10
-219.5186989777011
 20
207.8212324123529
 30
0.0
 10
-219.752551819586
 20
208.7087113313476
 30
0.0
 10
-220.3099419469577
 20
211.3742867416184
 30
0.0
 10
-220.4960370048799
 20
213.1655717047177
 30
0.0
 10
-220.4990223335528
 20
215.8737004116471
 30
0.0
 10
-220.453558503304
 20
216.7811970673157
 30
0.0
 10
-220.2669696889996
 20
218.5984950832469
 30
0.0
 10
-220.1273905938438
 20
219.4945475823076
 30
0.0
 10
-219.5754385059196
 20
222.1464598692848
 30
0.0
 10
-219.0310427017932
 20
223.8663966179769
 30
0.0
 10
-218.1297452558458
 20
225.9563012043649
 30
0.0
 10
-217.9379282359253
 20
226.3719909966498
 30
0.0
 10
-217.5360755053772
 20
227.1886113177558
 30
0.0
 10
-217.3256648833401
 20
227.5905186611397
 30
0.0
 10
-216.6666559105709
 20
228.7774842681524
 30
0.0
 10
-216.1903482913696
 20
229.5438319996522
 30
0.0
 10
-215.1656633173876
 20
231.0278386536168
 30
0.0
 10
-214.6172846511154
 20
231.7454967403061
 30
0.0
 10
-213.4481507437063
 20
233.1318896746731
 30
0.0
 10
-212.8241009635959
 20
233.8034692108361
 30
0.0
 10
-210.8782089641242
 20
235.7066819034839
 30
0.0
 10
-209.4774505208218
 20
236.8375494211442
 30
0.0
 10
-207.2261812717138
 20
238.3314402989186
 30
0.0
 10
-206.4505425837823
 20
238.7954110145665
 30
0.0
 10
-204.8472467285578
 20
239.6528410474285
 30
0.0
 10
-204.0330255210657
 20
240.0390933834622
 30
0.0
 10
-201.5558226222094
 20
241.0738731814784
 30
0.0
 10
-199.8581605222165
 20
241.5999339964595
 30
0.0
 10
-197.2429591351111
 20
242.1366151166899
 30
0.0
 10
-196.3566853922969
 20
242.2731337451388
 30
0.0
 10
-194.5902101502543
 20
242.454324915794
 30
0.0
 10
-193.7070647426846
 20
242.4998957122543
 30
0.0
 10
-191.0580771334563
 20
242.5002080404556
 30
0.0
 10
-189.3388864271804
 20
242.3199161475742
 30
0.0
 10
-186.8255848548893
 20
241.7914735969275
 30
0.0
 10
-185.9987712731779
 20
241.5719954756044
 30
0.0
 10
-184.7748151020733
 20
241.1764445342603
 30
0.0
 10
-184.3684054565231
 20
241.0330574159066
 30
0.0
 10
-183.568012548329
 20
240.7264235764727
 30
0.0
 10
-183.1739226074705
 20
240.5632313960839
 30
0.0
 10
-181.2329881957189
 20
239.698932219867
 30
0.0
 10
-179.7738927370691
 20
238.8542922618674
 30
0.0
 10
-178.059257385104
 20
237.6082035993996
 30
0.0
 10
-177.721840946759
 20
237.3493792150814
 30
0.0
 10
-177.0580296600519
 20
236.8121695541953
 30
0.0
 10
-176.7318813941693
 20
236.5338884878541
 30
0.0
 10
-175.7800221823764
 20
235.6785627628275
 30
0.0
 10
-175.1772563856663
 20
235.0782807324622
 30
0.0
 10
-173.4598828567334
 20
233.1888668933651
 30
0.0
 10
-172.4352557086581
 20
231.812107170733
 30
0.0
 10
-171.078386249114
 20
229.5610090143256
 30
0.0
 10
-170.6620645957927
 20
228.7885324021055
 30
0.0
 10
-169.9038394317815
 20
227.2100778792917
 30
0.0
 10
-169.5609876896065
 20
226.4025214935286
 30
0.0
 10
-168.9467499756225
 20
224.7505642261236
 30
0.0
 10
-168.6753617863192
 20
223.9061656684224
 30
0.0
 10
-168.2053151712597
 20
222.1792689001702
 30
0.0
 10
-168.006025579233
 20
221.2917317088702
 30
0.0
 10
-167.5315474834923
 20
218.6259691080407
 30
0.0
 10
-167.3738254536561
 20
216.8345572750161
 30
0.0
 10
-167.3712917781235
 20
214.1262352640559
 30
0.0
 10
-167.4098652990341
 20
213.2186715242407
 30
0.0
 10
-167.5683491725077
 20
211.4012473942633
 30
0.0
 10
-167.6869488124402
 20
210.5051335819647
 30
0.0
 10
-168.1567839888566
 20
207.853042375443
 30
0.0
 10
-168.6208651722339
 20
206.1329929457098
 30
0.0
 10
-169.3947240629651
 20
204.0429564779839
 30
0.0
 10
-169.5596428342709
 20
203.6272431100268
 30
0.0
 10
-169.9057318755222
 20
202.8105809622362
 30
0.0
 10
-170.087223922228
 20
202.4086535054258
 30
0.0
 10
-170.6567167504014
 20
201.2216299669345
 30
0.0
 10
-171.0696675176481
 20
200.4552468145007
 30
0.0
 10
-171.9620803646007
 20
198.9711760424954
 30
0.0
 10
-172.4415402796984
 20
198.2534892558599
 30
0.0
 10
-173.4690758870421
 20
196.8670463743674
 30
0.0
 10
-174.0200907124321
 20
196.1954495857504
 30
0.0
 10
-175.7482787493542
 20
194.2922204289134
 30
0.0
 10
-177.0049503630466
 20
193.1613581143459
 30
0.0
 10
-179.0536587186107
 20
191.6675066048149
 30
0.0
 10
-179.7640391728349
 20
191.2035543326714
 30
0.0
 10
-181.2434933043744
 20
190.3461741440425
 30
0.0
 10
-182.0001424579355
 20
189.9599741596238
 30
0.0
 10
-184.3201295508668
 20
188.9253330972617
 30
0.0
 10
-185.9335050491711
 20
188.3993855016746
 30
0.0
 10
-188.4617800307119
 20
187.8629208892575
 30
0.0
 10
-189.3256542823912
 20
187.7264852285516
 30
0.0
 10
-191.0623511286579
 20
187.5454744429415
 30
0.0
 10
-191.93811112115
 20
187.4999999999999
 30
0.0
 10
-192.8210436464166
 20
187.4999999999999
 30
0.0
  0
SPLINE
  5
F2
330
1F
100
AcDbEntity
  8
0
  6
Continuous
 62
     7
370
    15
100
AcDbSpline
210
0.0
220
0.0
230
1.0
 70
    11
 71
     3
 72
   118
 73
   114
 74
     0
 42
0.000000001
 43
0.00000001
 40
0.0
 40
0.0
 40
0.0
 40
0.0
 40
0.0312499999999972
 40
0.0312499999999972
 40
0.0468749999999953
 40
0.0468749999999953
 40
0.0546874999999944
 40
0.0546874999999944
 40
0.0624999999999934
 40
0.0624999999999934
 40
0.0937499999999926
 40
0.0937499999999926
 40
0.1015624999999925
 40
0.1015624999999925
 40
0.1093749999999924
 40
0.1093749999999924
 40
0.1249999999999922
 40
0.1249999999999922
 40
0.1562499999999918
 40
0.1562499999999918
 40
0.1718749999999914
 40
0.1718749999999914
 40
0.1874999999999909
 40
0.1874999999999909
 40
0.2031249999999904
 40
0.2031249999999904
 40
0.21874999999999
 40
0.21874999999999
 40
0.249999999999989
 40
0.249999999999989
 40
0.2656249999999883
 40
0.2656249999999883
 40
0.2812499999999875
 40
0.2812499999999875
 40
0.3124999999999863
 40
0.3124999999999863
 40
0.3203124999999858
 40
0.3203124999999858
 40
0.3281249999999852
 40
0.3281249999999852
 40
0.3437499999999836
 40
0.3437499999999836
 40
0.359374999999982
 40
0.359374999999982
 40
0.3749999999999805
 40
0.3749999999999805
 40
0.4062499999999782
 40
0.4062499999999782
 40
0.4218749999999771
 40
0.4218749999999771
 40
0.4374999999999759
 40
0.4374999999999759
 40
0.4687499999999737
 40
0.4687499999999737
 40
0.4843749999999722
 40
0.4843749999999722
 40
0.4999999999999707
 40
0.4999999999999707
 40
0.5312499999999672
 40
0.5312499999999672
 40
0.5468749999999658
 40
0.5468749999999658
 40
0.5546874999999648
 40
0.5546874999999648
 40
0.5624999999999637
 40
0.5624999999999637
 40
0.5937499999999615
 40
0.5937499999999615
 40
0.6015624999999609
 40
0.6015624999999609
 40
0.6093749999999603
 40
0.6093749999999603
 40
0.6249999999999596
 40
0.6249999999999596
 40
0.65624999999996
 40
0.65624999999996
 40
0.6718749999999603
 40
0.6718749999999603
 40
0.6874999999999605
 40
0.6874999999999605
 40
0.7031249999999606
 40
0.7031249999999606
 40
0.7187499999999607
 40
0.7187499999999607
 40
0.7499999999999614
 40
0.7499999999999614
 40
0.7656249999999619
 40
0.7656249999999619
 40
0.7812499999999626
 40
0.7812499999999626
 40
0.8124999999999639
 40
0.8124999999999639
 40
0.8203124999999649
 40
0.8203124999999649
 40
0.8281249999999659
 40
0.8281249999999659
 40
0.8437499999999686
 40
0.8437499999999686
 40
0.8593749999999712
 40
0.8593749999999712
 40
0.8749999999999739
 40
0.8749999999999739
 40
0.9062499999999803
 40
0.9062499999999803
 40
0.9218749999999833
 40
0.9218749999999833
 40
0.9374999999999865
 40
0.9374999999999865
 40
0.968749999999993
 40
0.968749999999993
 40
0.9843749999999966
 40
0.9843749999999966
 40
1.0
 40
1.0
 40
1.0
 40
1.0
 10
-342.5395467212223
 20
187.5000000000001
 30
0.0
 10
-344.3054117717554
 20
187.5
 30
0.0
 10
-346.0546594043905
 20
187.6804635666357
 30
0.0
 10
-348.6536618138149
 20
188.2091288363252
 30
0.0
 10
-349.5157984908052
 20
188.4286752581994
 30
0.0
 10
-350.8022358450058
 20
188.824321375465
 30
0.0
 10
-351.2311254412301
 20
188.9677391112768
 30
0.0
 10
-352.0790781234539
 20
189.2744215959791
 30
0.0
 10
-352.4982533737237
 20
189.4376362450005
 30
0.0
 10
-354.5705195437909
 20
190.302039450155
 30
0.0
 10
-356.1535352271468
 20
191.1467364924908
 30
0.0
 10
-358.0373383171977
 20
192.3928734444228
 30
0.0
 10
-358.4093034338946
 20
192.6517063071026
 30
0.0
 10
-359.1434113053938
 20
193.1889307154787
 30
0.0
 10
-359.5052797921946
 20
193.4672114754609
 30
0.0
 10
-360.5645764974822
 20
194.3225342438831
 30
0.0
 10
-361.2397007742935
 20
194.922809367876
 30
0.0
 10
-363.1732927587075
 20
196.812189763284
 30
0.0
 10
-364.3409553469123
 20
198.1889104232673
 30
0.0
 10
-365.8988029203935
 20
200.4399283894994
 30
0.0
 10
-366.3789878612795
 20
201.2123558774229
 30
0.0
 10
-367.2563578188765
 20
202.790723967271
 30
0.0
 10
-367.6546294857217
 20
203.5982344658327
 30
0.0
 10
-368.3699616084575
 20
205.2500949153589
 30
0.0
 10
-368.6870271458614
 20
206.094442541694
 30
0.0
 10
-369.2372020525071
 20
207.8212324123526
 30
0.0
 10
-369.471054894392
 20
208.7087113313472
 30
0.0
 10
-370.0284450217636
 20
211.3742867416182
 30
0.0
 10
-370.2145400796858
 20
213.1655717047175
 30
0.0
 10
-370.2175254083591
 20
215.8737004116469
 30
0.0
 10
-370.1720615781102
 20
216.7811970673155
 30
0.0
 10
-369.9854727638055
 20
218.5984950832465
 30
0.0
 10
-369.84589366865
 20
219.4945475823073
 30
0.0
 10
-369.2939415807257
 20
222.1464598692844
 30
0.0
 10
-368.7495457765995
 20
223.8663966179769
 30
0.0
 10
-367.8482483306521
 20
225.9563012043647
 30
0.0
 10
-367.6564313107318
 20
226.3719909966495
 30
0.0
 10
-367.2545785801835
 20
227.1886113177556
 30
0.0
 10
-367.0441679581465
 20
227.5905186611396
 30
0.0
 10
-366.3851589853771
 20
228.7774842681523
 30
0.0
 10
-365.908851366176
 20
229.5438319996519
 30
0.0
 10
-364.8841663921938
 20
231.0278386536168
 30
0.0
 10
-364.3357877259216
 20
231.7454967403058
 30
0.0
 10
-363.1666538185127
 20
233.1318896746729
 30
0.0
 10
-362.5426040384024
 20
233.803469210836
 30
0.0
 10
-360.5967120389304
 20
235.7066819034837
 30
0.0
 10
-359.1959535956282
 20
236.837549421144
 30
0.0
 10
-356.9446843465203
 20
238.3314402989186
 30
0.0
 10
-356.1690456585888
 20
238.7954110145665
 30
0.0
 10
-354.565749803364
 20
239.6528410474285
 30
0.0
 10
-353.751528595872
 20
240.0390933834622
 30
0.0
 10
-351.2743256970157
 20
241.0738731814783
 30
0.0
 10
-349.5766635970226
 20
241.5999339964593
 30
0.0
 10
-346.9614622099174
 20
242.1366151166899
 30
0.0
 10
-346.075188467103
 20
242.2731337451388
 30
0.0
 10
-344.3087132250605
 20
242.4543249157939
 30
0.0
 10
-343.425567817491
 20
242.4998957122546
 30
0.0
 10
-340.7765802082627
 20
242.5002080404557
 30
0.0
 10
-339.0573895019866
 20
242.3199161475743
 30
0.0
 10
-336.5440879296954
 20
241.7914735969276
 30
0.0
 10
-335.7172743479838
 20
241.5719954756044
 30
0.0
 10
-334.4933181768794
 20
241.1764445342604
 30
0.0
 10
-334.0869085313296
 20
241.0330574159068
 30
0.0
 10
-333.2865156231354
 20
240.7264235764729
 30
0.0
 10
-332.8924256822769
 20
240.5632313960841
 30
0.0
 10
-330.9514912705251
 20
239.6989322198672
 30
0.0
 10
-329.4923958118752
 20
238.8542922618677
 30
0.0
 10
-327.7777604599102
 20
237.6082035993999
 30
0.0
 10
-327.4403440215652
 20
237.3493792150819
 30
0.0
 10
-326.7765327348581
 20
236.8121695541955
 30
0.0
 10
-326.4503844689756
 20
236.5338884878545
 30
0.0
 10
-325.4985252571826
 20
235.6785627628279
 30
0.0
 10
-324.8957594604726
 20
235.0782807324625
 30
0.0
 10
-323.1783859315398
 20
233.1888668933653
 30
0.0
 10
-322.1537587834645
 20
231.8121071707331
 30
0.0
 10
-320.7968893239202
 20
229.5610090143258
 30
0.0
 10
-320.380567670599
 20
228.7885324021059
 30
0.0
 10
-319.6223425065877
 20
227.210077879292
 30
0.0
 10
-319.2794907644129
 20
226.4025214935289
 30
0.0
 10
-318.6652530504286
 20
224.750564226124
 30
0.0
 10
-318.3938648611253
 20
223.9061656684228
 30
0.0
 10
-317.9238182460659
 20
222.1792689001707
 30
0.0
 10
-317.724528654039
 20
221.2917317088705
 30
0.0
 10
-317.2500505582984
 20
218.625969108041
 30
0.0
 10
-317.092328528462
 20
216.8345572750163
 30
0.0
 10
-317.0897948529295
 20
214.1262352640561
 30
0.0
 10
-317.1283683738402
 20
213.2186715242411
 30
0.0
 10
-317.2868522473137
 20
211.4012473942636
 30
0.0
 10
-317.4054518872463
 20
210.505133581965
 30
0.0
 10
-317.8752870636628
 20
207.8530423754433
 30
0.0
 10
-318.3393682470399
 20
206.13299294571
 30
0.0
 10
-319.113227137771
 20
204.0429564779841
 30
0.0
 10
-319.2781459090768
 20
203.627243110027
 30
0.0
 10
-319.6242349503282
 20
202.8105809622366
 30
0.0
 10
-319.805726997034
 20
202.4086535054261
 30
0.0
 10
-320.3752198252072
 20
201.2216299669348
 30
0.0
 10
-320.7881705924539
 20
200.4552468145012
 30
0.0
 10
-321.6805834394065
 20
198.9711760424957
 30
0.0
 10
-322.160043354504
 20
198.2534892558602
 30
0.0
 10
-323.1875789618479
 20
196.8670463743678
 30
0.0
 10
-323.738593787238
 20
196.1954495857506
 30
0.0
 10
-325.4667818241599
 20
194.2922204289136
 30
0.0
 10
-326.7234534378524
 20
193.1613581143464
 30
0.0
 10
-328.7721617934163
 20
191.6675066048151
 30
0.0
 10
-329.4825422476407
 20
191.2035543326716
 30
0.0
 10
-330.9619963791801
 20
190.3461741440426
 30
0.0
 10
-331.7186455327413
 20
189.9599741596241
 30
0.0
 10
-334.0386326256725
 20
188.925333097262
 30
0.0
 10
-335.6520081239767
 20
188.3993855016747
 30
0.0
 10
-338.1802831055174
 20
187.8629208892577
 30
0.0
 10
-339.0441573571972
 20
187.7264852285517
 30
0.0
 10
-340.7808542034638
 20
187.5454744429416
 30
0.0
 10
-341.6566141959555
 20
187.5000000000001
 30
0.0
 10
-342.5395467212222
 20
187.5000000000001
 30
0.0
  0
SPLINE
  5
F3
330
1F
100
AcDbEntity
  8
0
  6
Continuous
 62
     7
370
    15
100
AcDbSpline
210
0.0
220
0.0
230
1.0
 70
    11
 71
     3
 72
   118
 73
   114
 74
     0
 42
0.000000001
 43
0.00000001
 40
0.0
 40
0.0
 40
0.0
 40
0.0
 40
0.0312499999999994
 40
0.0312499999999994
 40
0.046874999999999
 40
0.046874999999999
 40
0.0546874999999989
 40
0.0546874999999989
 40
0.0624999999999987
 40
0.0624999999999987
 40
0.0937499999999979
 40
0.0937499999999979
 40
0.1015624999999979
 40
0.1015624999999979
 40
0.1093749999999978
 40
0.1093749999999978
 40
0.1249999999999974
 40
0.1249999999999974
 40
0.1562499999999971
 40
0.1562499999999971
 40
0.1718749999999971
 40
0.1718749999999971
 40
0.187499999999997
 40
0.187499999999997
 40
0.2031249999999969
 40
0.2031249999999969
 40
0.2187499999999969
 40
0.2187499999999969
 40
0.2499999999999968
 40
0.2499999999999968
 40
0.2656249999999969
 40
0.2656249999999969
 40
0.2812499999999971
 40
0.2812499999999971
 40
0.3124999999999971
 40
0.3124999999999971
 40
0.3203124999999971
 40
0.3203124999999971
 40
0.3281249999999971
 40
0.3281249999999971
 40
0.3437499999999972
 40
0.3437499999999972
 40
0.3593749999999974
 40
0.3593749999999974
 40
0.3749999999999976
 40
0.3749999999999976
 40
0.4062499999999978
 40
0.4062499999999978
 40
0.4218749999999979
 40
0.4218749999999979
 40
0.437499999999998
 40
0.437499999999998
 40
0.4687499999999983
 40
0.4687499999999983
 40
0.4843749999999986
 40
0.4843749999999986
 40
0.4999999999999987
 40
0.4999999999999987
 40
0.5312499999999992
 40
0.5312499999999992
 40
0.5468749999999992
 40
0.5468749999999992
 40
0.5546874999999989
 40
0.5546874999999989
 40
0.5624999999999984
 40
0.5624999999999984
 40
0.5937499999999973
 40
0.5937499999999973
 40
0.601562499999997
 40
0.601562499999997
 40
0.6093749999999968
 40
0.6093749999999968
 40
0.6249999999999964
 40
0.6249999999999964
 40
0.6562499999999967
 40
0.6562499999999967
 40
0.671874999999997
 40
0.671874999999997
 40
0.6874999999999973
 40
0.6874999999999973
 40
0.7031249999999978
 40
0.7031249999999978
 40
0.7187499999999981
 40
0.7187499999999981
 40
0.7499999999999996
 40
0.7499999999999996
 40
0.765625
 40
0.765625
 40
0.7812500000000004
 40
0.7812500000000004
 40
0.8125000000000007
 40
0.8125000000000007
 40
0.8203125000000004
 40
0.8203125000000004
 40
0.8281250000000002
 40
0.8281250000000002
 40
0.8437500000000002
 40
0.8437500000000002
 40
0.8593750000000002
 40
0.8593750000000002
 40
0.8750000000000002
 40
0.8750000000000002
 40
0.9062499999999998
 40
0.9062499999999998
 40
0.9218749999999997
 40
0.9218749999999997
 40
0.9374999999999996
 40
0.9374999999999996
 40
0.9687499999999997
 40
0.9687499999999997
 40
0.9843749999999998
 40
0.9843749999999998
 40
1.0
 40
1.0
 40
1.0
 40
1.0
 10
96.95670424030442
 20
187.4999999999998
 30
0.0
 10
95.19083918977121
 20
187.4999999999997
 30
0.0
 10
93.44159155713615
 20
187.6804635666359
 30
0.0
 10
90.8425891477116
 20
188.2091288363251
 30
0.0
 10
89.98045247072146
 20
188.4286752581995
 30
0.0
 10
88.69401511652079
 20
188.8243213754649
 30
0.0
 10
88.2651255202965
 20
188.9677391112767
 30
0.0
 10
87.41717283807273
 20
189.2744215959789
 30
0.0
 10
86.99799758780301
 20
189.4376362450004
 30
0.0
 10
84.92573141773582
 20
190.3020394501549
 30
0.0
 10
83.34271573438002
 20
191.146736492491
 30
0.0
 10
81.45891264432882
 20
192.3928734444227
 30
0.0
 10
81.08694752763206
 20
192.6517063071025
 30
0.0
 10
80.3528396561328
 20
193.1889307154786
 30
0.0
 10
79.9909711693321
 20
193.4672114754609
 30
0.0
 10
78.93167446404465
 20
194.3225342438831
 30
0.0
 10
78.25655018723322
 20
194.9228093678761
 30
0.0
 10
76.32295820281924
 20
196.8121897632842
 30
0.0
 10
75.15529561461446
 20
198.1889104232676
 30
0.0
 10
73.59744804113333
 20
200.4399283894994
 30
0.0
 10
73.11726310024736
 20
201.2123558774231
 30
0.0
 10
72.23989314265037
 20
202.7907239672712
 30
0.0
 10
71.84162147580543
 20
203.5982344658327
 30
0.0
 10
71.12628935306924
 20
205.250094915359
 30
0.0
 10
70.80922381566565
 20
206.0944425416941
 30
0.0
 10
70.25904890901981
 20
207.8212324123526
 30
0.0
 10
70.02519606713493
 20
208.7087113313472
 30
0.0
 10
69.4678059397633
 20
211.3742867416182
 30
0.0
 10
69.28171088184101
 20
213.1655717047177
 30
0.0
 10
69.27872555316804
 20
215.873700411647
 30
0.0
 10
69.32418938341685
 20
216.7811970673156
 30
0.0
 10
69.51077819772132
 20
218.5984950832468
 30
0.0
 10
69.65035729287693
 20
219.4945475823073
 30
0.0
 10
70.20230938080125
 20
222.1464598692845
 30
0.0
 10
70.74670518492776
 20
223.8663966179769
 30
0.0
 10
71.64800263087501
 20
225.9563012043647
 30
0.0
 10
71.8398196507956
 20
226.3719909966496
 30
0.0
 10
72.24167238134362
 20
227.1886113177556
 30
0.0
 10
72.45208300338057
 20
227.5905186611395
 30
0.0
 10
73.11109197614994
 20
228.7774842681523
 30
0.0
 10
73.58739959535123
 20
229.543831999652
 30
0.0
 10
74.61208456933315
 20
231.0278386536167
 30
0.0
 10
75.16046323560558
 20
231.7454967403058
 30
0.0
 10
76.3295971430145
 20
233.131889674673
 30
0.0
 10
76.95364692312491
 20
233.803469210836
 30
0.0
 10
78.89953892259649
 20
235.7066819034838
 30
0.0
 10
80.30029736589886
 20
236.837549421144
 30
0.0
 10
82.55156661500696
 20
238.3314402989184
 30
0.0
 10
83.32720530293842
 20
238.7954110145664
 30
0.0
 10
84.93050115816298
 20
239.6528410474283
 30
0.0
 10
85.7447223656551
 20
240.039093383462
 30
0.0
 10
88.2219252645115
 20
241.0738731814781
 30
0.0
 10
89.91958736450455
 20
241.5999339964594
 30
0.0
 10
92.53478875160968
 20
242.1366151166897
 30
0.0
 10
93.421062494424
 20
242.2731337451387
 30
0.0
 10
95.18753773646665
 20
242.4543249157939
 30
0.0
 10
96.07068314403625
 20
242.4998957122544
 30
0.0
 10
98.71967075326451
 20
242.5002080404554
 30
0.0
 10
100.4388614595403
 20
242.3199161475742
 30
0.0
 10
102.9521630318314
 20
241.7914735969274
 30
0.0
 10
103.7789766135429
 20
241.5719954756042
 30
0.0
 10
105.0029327846475
 20
241.1764445342602
 30
0.0
 10
105.4093424301978
 20
241.0330574159065
 30
0.0
 10
106.2097353383918
 20
240.7264235764725
 30
0.0
 10
106.6038252792502
 20
240.5632313960838
 30
0.0
 10
108.5447596910019
 20
239.6989322198669
 30
0.0
 10
110.0038551496518
 20
238.8542922618675
 30
0.0
 10
111.7184905016168
 20
237.6082035993995
 30
0.0
 10
112.0559069399619
 20
237.3493792150815
 30
0.0
 10
112.719718226669
 20
236.8121695541952
 30
0.0
 10
113.0458664925515
 20
236.533888487854
 30
0.0
 10
113.9977257043444
 20
235.6785627628274
 30
0.0
 10
114.6004915010545
 20
235.0782807324623
 30
0.0
 10
116.3178650299874
 20
233.188866893365
 30
0.0
 10
117.3424921780626
 20
231.8121071707327
 30
0.0
 10
118.6993616376068
 20
229.5610090143254
 30
0.0
 10
119.1156832909281
 20
228.7885324021055
 30
0.0
 10
119.8739084549393
 20
227.2100778792916
 30
0.0
 10
120.2167601971143
 20
226.4025214935285
 30
0.0
 10
120.8309979110984
 20
224.7505642261236
 30
0.0
 10
121.1023861004017
 20
223.9061656684224
 30
0.0
 10
121.5724327154611
 20
222.1792689001702
 30
0.0
 10
121.771722307488
 20
221.2917317088699
 30
0.0
 10
122.2462004032285
 20
218.6259691080405
 30
0.0
 10
122.4039224330648
 20
216.8345572750162
 30
0.0
 10
122.4064561085974
 20
214.1262352640558
 30
0.0
 10
122.3678825876867
 20
213.2186715242406
 30
0.0
 10
122.2093987142132
 20
211.4012473942633
 30
0.0
 10
122.0907990742807
 20
210.5051335819647
 30
0.0
 10
121.6209638978643
 20
207.8530423754429
 30
0.0
 10
121.1568827144869
 20
206.1329929457095
 30
0.0
 10
120.3830238237557
 20
204.0429564779838
 30
0.0
 10
120.2181050524499
 20
203.6272431100266
 30
0.0
 10
119.8720160111987
 20
202.8105809622362
 30
0.0
 10
119.6905239644928
 20
202.4086535054258
 30
0.0
 10
119.1210311363195
 20
201.2216299669345
 30
0.0
 10
118.7080803690728
 20
200.4552468145006
 30
0.0
 10
117.8156675221202
 20
198.9711760424952
 30
0.0
 10
117.3362076070226
 20
198.2534892558598
 30
0.0
 10
116.3086719996789
 20
196.8670463743673
 30
0.0
 10
115.7576571742887
 20
196.1954495857503
 30
0.0
 10
114.0294691373667
 20
194.2922204289133
 30
0.0
 10
112.7727975236744
 20
193.1613581143459
 30
0.0
 10
110.7240891681102
 20
191.6675066048147
 30
0.0
 10
110.0137087138861
 20
191.2035543326713
 30
0.0
 10
108.5342545823465
 20
190.3461741440424
 30
0.0
 10
107.7776054287854
 20
189.9599741596238
 30
0.0
 10
105.4576183358541
 20
188.9253330972616
 30
0.0
 10
103.84424283755
 20
188.3993855016743
 30
0.0
 10
101.3159678560092
 20
187.8629208892575
 30
0.0
 10
100.4520936043298
 20
187.7264852285515
 30
0.0
 10
98.71539675806294
 20
187.5454744429414
 30
0.0
 10
97.83963676557107
 20
187.4999999999999
 30
0.0
 10
96.95670424030443
 20
187.4999999999998
 30
0.0
  0
SPLINE
  5
F4
330
1F
100
AcDbEntity
  8
0
  6
Continuous
 62
     7
370
    15
100
AcDbSpline
210
0.0
220
0.0
230
1.0
 70
    11
 71
     3
 72
   118
 73
   114
 74
     0
 42
0.000000001
 43
0.00000001
 40
0.0
 40
0.0
 40
0.0
 40
0.0
 40
0.0312499999999967
 40
0.0312499999999967
 40
0.0468749999999948
 40
0.0468749999999948
 40
0.0546874999999939
 40
0.0546874999999939
 40
0.0624999999999929
 40
0.0624999999999929
 40
0.0937499999999887
 40
0.0937499999999887
 40
0.1015624999999877
 40
0.1015624999999877
 40
0.1093749999999867
 40
0.1093749999999867
 40
0.1249999999999852
 40
0.1249999999999852
 40
0.156249999999982
 40
0.156249999999982
 40
0.1718749999999805
 40
0.1718749999999805
 40
0.1874999999999789
 40
0.1874999999999789
 40
0.2031249999999773
 40
0.2031249999999773
 40
0.2187499999999757
 40
0.2187499999999757
 40
0.2499999999999726
 40
0.2499999999999726
 40
0.2656249999999712
 40
0.2656249999999712
 40
0.2812499999999699
 40
0.2812499999999699
 40
0.3124999999999677
 40
0.3124999999999677
 40
0.3203124999999671
 40
0.3203124999999671
 40
0.3281249999999664
 40
0.3281249999999664
 40
0.3437499999999654
 40
0.3437499999999654
 40
0.3593749999999643
 40
0.3593749999999643
 40
0.3749999999999633
 40
0.3749999999999633
 40
0.4062499999999608
 40
0.4062499999999608
 40
0.4218749999999598
 40
0.4218749999999598
 40
0.4374999999999588
 40
0.4374999999999588
 40
0.468749999999957
 40
0.468749999999957
 40
0.4843749999999561
 40
0.4843749999999561
 40
0.4999999999999553
 40
0.4999999999999553
 40
0.531249999999953
 40
0.531249999999953
 40
0.5468749999999523
 40
0.5468749999999523
 40
0.5546874999999523
 40
0.5546874999999523
 40
0.5624999999999521
 40
0.5624999999999521
 40
0.5937499999999531
 40
0.5937499999999531
 40
0.6015624999999533
 40
0.6015624999999533
 40
0.6093749999999535
 40
0.6093749999999535
 40
0.6249999999999545
 40
0.6249999999999545
 40
0.6562499999999581
 40
0.6562499999999581
 40
0.6718749999999598
 40
0.6718749999999598
 40
0.6874999999999615
 40
0.6874999999999615
 40
0.7031249999999631
 40
0.7031249999999631
 40
0.7187499999999648
 40
0.7187499999999648
 40
0.7499999999999684
 40
0.7499999999999684
 40
0.76562499999997
 40
0.76562499999997
 40
0.7812499999999716
 40
0.7812499999999716
 40
0.8124999999999754
 40
0.8124999999999754
 40
0.8203124999999766
 40
0.8203124999999766
 40
0.8281249999999779
 40
0.8281249999999779
 40
0.8437499999999796
 40
0.8437499999999796
 40
0.8593749999999812
 40
0.8593749999999812
 40
0.8749999999999829
 40
0.8749999999999829
 40
0.906249999999986
 40
0.906249999999986
 40
0.9218749999999881
 40
0.9218749999999881
 40
0.9374999999999901
 40
0.9374999999999901
 40
0.968749999999995
 40
0.968749999999995
 40
0.9843749999999972
 40
0.9843749999999972
 40
1.0
 40
1.0
 40
1.0
 40
1.0
 10
246.6752073151099
 20
187.4999999999995
 30
0.0
 10
244.9093422645768
 20
187.4999999999996
 30
0.0
 10
243.1600946319415
 20
187.6804635666355
 30
0.0
 10
240.5610922225171
 20
188.2091288363249
 30
0.0
 10
239.698955545527
 20
188.428675258199
 30
0.0
 10
238.4125181913264
 20
188.8243213754647
 30
0.0
 10
237.983628595102
 20
188.9677391112765
 30
0.0
 10
237.1356759128784
 20
189.2744215959788
 30
0.0
 10
236.7165006626086
 20
189.4376362450002
 30
0.0
 10
234.6442344925414
 20
190.3020394501546
 30
0.0
 10
233.0612188091858
 20
191.1467364924908
 30
0.0
 10
231.1774157191344
 20
192.3928734444225
 30
0.0
 10
230.8054506024377
 20
192.6517063071023
 30
0.0
 10
230.0713427309383
 20
193.1889307154784
 30
0.0
 10
229.7094742441377
 20
193.4672114754607
 30
0.0
 10
228.6501775388502
 20
194.3225342438827
 30
0.0
 10
227.9750532620388
 20
194.9228093678759
 30
0.0
 10
226.0414612776247
 20
196.8121897632838
 30
0.0
 10
224.8737986894201
 20
198.1889104232672
 30
0.0
 10
223.3159511159388
 20
200.4399283894991
 30
0.0
 10
222.8357661750528
 20
201.2123558774225
 30
0.0
 10
221.9583962174559
 20
202.7907239672708
 30
0.0
 10
221.560124550611
 20
203.5982344658323
 30
0.0
 10
220.8447924278748
 20
205.2500949153587
 30
0.0
 10
220.5277268904711
 20
206.0944425416936
 30
0.0
 10
219.9775519838253
 20
207.8212324123523
 30
0.0
 10
219.7436991419404
 20
208.7087113313469
 30
0.0
 10
219.1863090145687
 20
211.374286741618
 30
0.0
 10
219.0002139566463
 20
213.1655717047173
 30
0.0
 10
218.9972286279734
 20
215.8737004116466
 30
0.0
 10
219.0426924582223
 20
216.7811970673152
 30
0.0
 10
219.2292812725267
 20
218.5984950832464
 30
0.0
 10
219.3688603676823
 20
219.494547582307
 30
0.0
 10
219.9208124556066
 20
222.1464598692842
 30
0.0
 10
220.4652082597335
 20
223.8663966179765
 30
0.0
 10
221.3665057056803
 20
225.9563012043645
 30
0.0
 10
221.5583227256009
 20
226.3719909966493
 30
0.0
 10
221.960175456149
 20
227.1886113177553
 30
0.0
 10
222.170586078186
 20
227.5905186611392
 30
0.0
 10
222.8295950509553
 20
228.777484268152
 30
0.0
 10
223.3059026701566
 20
229.5438319996517
 30
0.0
 10
224.3305876441385
 20
231.0278386536165
 30
0.0
 10
224.8789663104108
 20
231.7454967403055
 30
0.0
 10
226.0481002178198
 20
233.1318896746726
 30
0.0
 10
226.6721499979302
 20
233.8034692108356
 30
0.0
 10
228.6180419974019
 20
235.7066819034833
 30
0.0
 10
230.0188004407043
 20
236.8375494211436
 30
0.0
 10
232.2700696898122
 20
238.3314402989181
 30
0.0
 10
233.0457083777437
 20
238.7954110145661
 30
0.0
 10
234.6490042329683
 20
239.6528410474279
 30
0.0
 10
235.4632254404604
 20
240.0390933834618
 30
0.0
 10
237.9404283393168
 20
241.0738731814779
 30
0.0
 10
239.6380904393099
 20
241.5999339964592
 30
0.0
 10
242.2532918264149
 20
242.1366151166894
 30
0.0
 10
243.1395655692293
 20
242.2731337451385
 30
0.0
 10
244.9060408112718
 20
242.4543249157936
 30
0.0
 10
245.7891862188415
 20
242.4998957122542
 30
0.0
 10
248.4381738280697
 20
242.5002080404552
 30
0.0
 10
250.157364534346
 20
242.3199161475742
 30
0.0
 10
252.6706661066366
 20
241.7914735969272
 30
0.0
 10
253.4974796883484
 20
241.571995475604
 30
0.0
 10
254.7214358594527
 20
241.17644453426
 30
0.0
 10
255.127845505003
 20
241.0330574159064
 30
0.0
 10
255.9282384131972
 20
240.7264235764725
 30
0.0
 10
256.3223283540556
 20
240.5632313960838
 30
0.0
 10
258.2632627658073
 20
239.6989322198669
 30
0.0
 10
259.7223582244572
 20
238.8542922618676
 30
0.0
 10
261.4369935764221
 20
237.6082035993995
 30
0.0
 10
261.7744100147673
 20
237.3493792150815
 30
0.0
 10
262.4382213014743
 20
236.8121695541952
 30
0.0
 10
262.7643695673568
 20
236.5338884878541
 30
0.0
 10
263.7162287791498
 20
235.6785627628273
 30
0.0
 10
264.3189945758598
 20
235.0782807324622
 30
0.0
 10
266.0363681047928
 20
233.1888668933649
 30
0.0
 10
267.0609952528681
 20
231.812107170733
 30
0.0
 10
268.4178647124122
 20
229.5610090143254
 30
0.0
 10
268.8341863657336
 20
228.7885324021055
 30
0.0
 10
269.5924115297447
 20
227.2100778792916
 30
0.0
 10
269.9352632719198
 20
226.4025214935286
 30
0.0
 10
270.5495009859038
 20
224.7505642261236
 30
0.0
 10
270.8208891752072
 20
223.9061656684224
 30
0.0
 10
271.2909357902666
 20
222.1792689001702
 30
0.0
 10
271.4902253822934
 20
221.29173170887
 30
0.0
 10
271.9647034780342
 20
218.6259691080405
 30
0.0
 10
272.1224255078702
 20
216.8345572750159
 30
0.0
 10
272.1249591834028
 20
214.1262352640557
 30
0.0
 10
272.0863856624922
 20
213.2186715242405
 30
0.0
 10
271.9279017890186
 20
211.4012473942631
 30
0.0
 10
271.8093021490861
 20
210.5051335819644
 30
0.0
 10
271.3394669726697
 20
207.8530423754427
 30
0.0
 10
270.8753857892922
 20
206.1329929457093
 30
0.0
 10
270.1015268985612
 20
204.0429564779838
 30
0.0
 10
269.9366081272554
 20
203.6272431100266
 30
0.0
 10
269.5905190860043
 20
202.8105809622361
 30
0.0
 10
269.4090270392984
 20
202.4086535054257
 30
0.0
 10
268.8395342111249
 20
201.2216299669344
 30
0.0
 10
268.4265834438783
 20
200.4552468145006
 30
0.0
 10
267.5341705969257
 20
198.9711760424953
 30
0.0
 10
267.0547106818282
 20
198.2534892558598
 30
0.0
 10
266.0271750744844
 20
196.8670463743672
 30
0.0
 10
265.4761602490943
 20
196.1954495857502
 30
0.0
 10
263.7479722121724
 20
194.2922204289132
 30
0.0
 10
262.4913005984799
 20
193.1613581143458
 30
0.0
 10
260.4425922429159
 20
191.6675066048147
 30
0.0
 10
259.7322117886917
 20
191.2035543326712
 30
0.0
 10
258.2527576571522
 20
190.3461741440422
 30
0.0
 10
257.496108503591
 20
189.9599741596236
 30
0.0
 10
255.1761214106597
 20
188.9253330972615
 30
0.0
 10
253.5627459123558
 20
188.3993855016743
 30
0.0
 10
251.0344709308148
 20
187.8629208892574
 30
0.0
 10
250.1705966791354
 20
187.7264852285512
 30
0.0
 10
248.4338998328684
 20
187.5454744429413
 30
0.0
 10
247.5581398403768
 20
187.4999999999995
 30
0.0
 10
246.6752073151099
 20
187.4999999999995
 30
0.0
  0
LWPOLYLINE
  5
FD
330
1F
100
AcDbEntity
  8
0
  6
Continuous
 62
     7
370
    15
100
AcDbPolyline
 90
        3
 70
   128
 43
0.0
 10
-333.300824261
 20
190.0
 10
-333.0745201633
 20
190.0010978343
 10
-331.4955828717
 20
190.0699553693
  0
LWPOLYLINE
  5
FE
330
1F
100
AcDbEntity
  8
0
  6
Continuous
 62
     7
370
    15
100
AcDbPolyline
 90
        3
 70
   128
 43
0.0
 10
-331.3296982447
 20
239.9165749558
 10
-332.0962424171
 20
239.9688767112
 10
-333.300824261
 20
240.0
  0
LWPOLYLINE
  5
103
330
1F
100
AcDbEntity
  8
0
  6
Continuous
 62
     7
370
    15
100
AcDbPolyline
 90
        3
 70
   128
 43
0.0
 10
255.9139297754
 20
190.0
 10
256.1402338731
 20
190.0010978343
 10
257.7191711647
 20
190.0699553693
  0
LWPOLYLINE
  5
104
330
1F
100
AcDbEntity
  8
0
  6
Continuous
 62
     7
370
    15
100
AcDbPolyline
 90
        3
 70
   128
 43
0.0
 10
257.8850557916
 20
239.9165749558
 10
257.1185116192
 20
239.9688767112
 10
255.9139297754
 20
240.0
  0
LWPOLYLINE
  5
107
330
1F
100
AcDbEntity
  8
0
  6
Continuous
 62
     7
370
    15
100
AcDbPolyline
 90
        3
 70
   128
 43
0.0
 10
106.1954267006
 20
190.0
 10
106.4217307983
 20
190.0010978343
 10
108.0006680898
 20
190.0699553693
  0
LWPOLYLINE
  5
108
330
1F
100
AcDbEntity
  8
0
  6
Continuous
 62
     7
370
    15
100
AcDbPolyline
 90
        3
 70
   128
 43
0.0
 10
108.1665527168
 20
239.9165749558
 10
107.4000085444
 20
239.9688767112
 10
106.1954267006
 20
240.0
  0
LWPOLYLINE
  5
109
330
1F
100
AcDbEntity
  8
0
  6
Continuous
 62
     7
370
    15
100
AcDbPolyline
 90
        3
 70
   128
 43
0.0
 10
-183.5823211862
 20
190.0
 10
-183.3560170885
 20
190.0010978343
 10
-181.7770797969
 20
190.0699553693
  0
LWPOLYLINE
  5
10A
330
1F
100
AcDbEntity
  8
0
  6
Continuous
 62
     7
370
    15
100
AcDbPolyline
 90
        3
 70
   128
 43
0.0
 10
-181.6111951699
 20
239.9165749558
 10
-182.3777393423
 20
239.9688767112
 10
-183.5823211862
 20
240.0
  0
LWPOLYLINE
  5
10D
330
1F
100
AcDbEntity
  8
0
  6
Continuous
 62
     7
370
    15
100
AcDbPolyline
 90
       37
 70
   128
 43
0.0
 10
1530.6645634499
 20
172.7445283296
 10
1529.1587171787
 20
171.4363998829
 10
1527.456334064
 20
170.4188565863
 10
1525.6091401554
 20
169.7228159781
 10
1523.6732615049
 20
169.3694268998
 10
1521.7075188058
 20
169.3694268998
 10
1519.7716401554
 20
169.7228159781
 10
1517.9244462467
 20
170.4188565863
 10
1516.222063132
 20
171.4363998829
 10
1514.7162168608
 20
172.7445283296
 10
1513.45266181
 20
174.3034951056
 10
1512.4697904604
 20
176.0659317942
 10
1511.7974668608
 20
177.9782876484
 10
1511.4561192233
 20
179.9824567034
 10
1511.4561192233
 20
182.0175432966
 10
1511.7974668608
 20
184.0217123516
 10
1512.4697904604
 20
185.9340682058
 10
1513.45266181
 20
187.6965048944
 10
1514.7162168608
 20
189.2554716704
 10
1516.222063132
 20
190.5636001171
 10
1517.9244462467
 20
191.5811434137
 10
1519.7716401554
 20
192.2771840219
 10
1521.7075188058
 20
192.6305731002
 10
1523.6732615049
 20
192.6305731002
 10
1525.6091401554
 20
192.2771840219
 10
1527.456334064
 20
191.5811434137
 10
1529.1587171787
 20
190.5636001171
 10
1530.6645634499
 20
189.2554716704
 10
1531.9281185007
 20
187.6965048944
 10
1532.9109898503
 20
185.9340682058
 10
1533.5833134499
 20
184.0217123516
 10
1533.9246610874
 20
182.0175432966
 10
1533.9246610874
 20
179.9824567034
 10
1533.5833134499
 20
177.9782876484
 10
1532.9109898503
 20
176.0659317942
 10
1531.9281185007
 20
174.3034951056
 10
1530.6645634499
 20
172.7445283296
  0
LWPOLYLINE
  5
110
330
1F
100
AcDbEntity
  8
0
  6
Continuous
 62
     7
370
    15
100
AcDbPolyline
 90
       30
 70
   128
 43
0.0
 10
1485.5452468741
 20
247.2593879052
 10
1485.2870221355
 20
245.9782876484
 10
1484.6146985358
 20
244.0659317942
 10
1483.6318271863
 20
242.3034951056
 10
1482.3682721355
 20
240.7445283296
 10
1480.8624258643
 20
239.4363998829
 10
1479.1600427496
 20
238.4188565863
 10
1477.3128488409
 20
237.7228159781
 10
1475.3769701904
 20
237.3694268998
 10
1473.4112274914
 20
237.3694268998
 10
1471.4753488409
 20
237.7228159781
 10
1469.6281549322
 20
238.4188565863
 10
1467.9257718175
 20
239.4363998829
 10
1466.4199255463
 20
240.7445283296
 10
1465.1563704955
 20
242.3034951056
 10
1464.173499146
 20
244.0659317942
 10
1463.5011755463
 20
245.9782876484
 10
1463.1598279089
 20
247.9824567034
 10
1463.1598279089
 20
250.0175432966
 10
1463.5011755463
 20
252.0217123516
 10
1464.173499146
 20
253.9340682058
 10
1465.1563704955
 20
255.6965048944
 10
1466.4199255463
 20
257.2554716704
 10
1467.9257718175
 20
258.5636001171
 10
1469.6281549322
 20
259.5811434137
 10
1471.4753488409
 20
260.2771840219
 10
1473.4112274914
 20
260.6305731002
 10
1475.3769701904
 20
260.6305731002
 10
1477.3128488409
 20
260.2771840219
 10
1477.5933207897
 20
260.1953455717
  0
LWPOLYLINE
  5
113
330
1F
100
AcDbEntity
  8
0
  6
Continuous
 62
     7
370
    15
100
AcDbPolyline
 90
       37
 70
   128
 43
0.0
 10
1163.6127494601
 20
189.2554716704
 10
1164.8763045109
 20
187.6965048944
 10
1165.8591758604
 20
185.9340682058
 10
1166.5314994601
 20
184.0217123516
 10
1166.8728470976
 20
182.0175432966
 10
1166.8728470976
 20
179.9824567034
 10
1166.5314994601
 20
177.9782876484
 10
1165.8591758604
 20
176.0659317942
 10
1164.8763045109
 20
174.3034951056
 10
1163.6127494601
 20
172.7445283296
 10
1162.1069031889
 20
171.4363998829
 10
1160.4045200742
 20
170.4188565863
 10
1158.5573261655
 20
169.7228159781
 10
1156.621447515
 20
169.3694268998
 10
1154.655704816
 20
169.3694268998
 10
1152.7198261655
 20
169.7228159781
 10
1150.8726322568
 20
170.4188565863
 10
1149.1702491421
 20
171.4363998829
 10
1147.6644028709
 20
172.7445283296
 10
1146.4008478201
 20
174.3034951056
 10
1145.4179764706
 20
176.0659317942
 10
1144.7456528709
 20
177.9782876484
 10
1144.4043052335
 20
179.9824567034
 10
1144.4043052335
 20
182.0175432966
 10
1144.7456528709
 20
184.0217123516
 10
1145.4179764706
 20
185.9340682058
 10
1146.4008478201
 20
187.6965048944
 10
1147.6644028709
 20
189.2554716704
 10
1149.1702491421
 20
190.5636001171
 10
1150.8726322568
 20
191.5811434137
 10
1152.7198261655
 20
192.2771840219
 10
1154.655704816
 20
192.6305731002
 10
1156.621447515
 20
192.6305731002
 10
1158.5573261655
 20
192.2771840219
 10
1160.4045200742
 20
191.5811434137
 10
1162.1069031889
 20
190.5636001171
 10
1163.6127494601
 20
189.2554716704
  0
LWPOLYLINE
  5
116
330
1F
100
AcDbEntity
  8
0
  6
Continuous
 62
     7
370
    15
100
AcDbPolyline
 90
       30
 70
   128
 43
0.0
 10
1118.4934328842
 20
247.2593879052
 10
1118.2352081456
 20
245.9782876484
 10
1117.562884546
 20
244.0659317942
 10
1116.5800131964
 20
242.3034951056
 10
1115.3164581456
 20
240.7445283296
 10
1113.8106118744
 20
239.4363998829
 10
1112.1082287597
 20
238.4188565863
 10
1110.2610348511
 20
237.7228159781
 10
1108.3251562006
 20
237.3694268998
 10
1106.3594135015
 20
237.3694268998
 10
1104.4235348511
 20
237.7228159781
 10
1102.5763409424
 20
238.4188565863
 10
1100.8739578277
 20
239.4363998829
 10
1099.3681115565
 20
240.7445283296
 10
1098.1045565057
 20
242.3034951056
 10
1097.1216851561
 20
244.0659317942
 10
1096.4493615565
 20
245.9782876484
 10
1096.108013919
 20
247.9824567034
 10
1096.108013919
 20
250.0175432966
 10
1096.4493615565
 20
252.0217123516
 10
1097.1216851561
 20
253.9340682058
 10
1098.1045565057
 20
255.6965048944
 10
1099.3681115565
 20
257.2554716704
 10
1100.8739578277
 20
258.5636001171
 10
1102.5763409424
 20
259.5811434137
 10
1104.4235348511
 20
260.2771840219
 10
1106.3594135015
 20
260.6305731002
 10
1108.3251562006
 20
260.6305731002
 10
1110.2610348511
 20
260.2771840219
 10
1110.5415067999
 20
260.1953455717
  0
LWPOLYLINE
  5
11A
330
1F
100
AcDbEntity
  8
0
  6
Continuous
 62
     7
370
    15
100
AcDbPolyline
 90
       24
 70
   128
 43
0.0
 10
-1238.3655832611
 20
247.2593879052
 10
-1238.6238079997
 20
245.9782876484
 10
-1239.2961315994
 20
244.0659317942
 10
-1240.2790029489
 20
242.3034951056
 10
-1241.5425579997
 20
240.7445283296
 10
-1243.0484042709
 20
239.4363998829
 10
-1244.7507873856
 20
238.4188565863
 10
-1246.5979812943
 20
237.7228159781
 10
-1248.5338599447
 20
237.3694268998
 10
-1250.4996026438
 20
237.3694268998
 10
-1252.4354812943
 20
237.7228159781
 10
-1254.282675203
 20
238.4188565863
 10
-1255.9850583176
 20
239.4363998829
 10
-1257.4909045889
 20
240.7445283296
 10
-1258.7544596397
 20
242.3034951056
 10
-1259.7373309892
 20
244.0659317942
 10
-1260.4096545889
 20
245.9782876484
 10
-1260.7510022263
 20
247.9824567034
 10
-1260.7510022263
 20
250.0175432966
 10
-1260.4096545889
 20
252.0217123516
 10
-1259.7373309892
 20
253.9340682058
 10
-1258.7544596397
 20
255.6965048944
 10
-1257.4909045889
 20
257.2554716704
 10
-1257.4909045889
 20
257.2554716704
  0
LWPOLYLINE
  5
11D
330
1F
100
AcDbEntity
  8
0
  6
Continuous
 62
     7
370
    15
100
AcDbPolyline
 90
       37
 70
   128
 43
0.0
 10
-1209.1946132744
 20
189.2554716704
 10
-1207.6887670032
 20
190.5636001171
 10
-1205.9863838885
 20
191.5811434137
 10
-1204.1391899798
 20
192.2771840219
 10
-1202.2033113294
 20
192.6305731002
 10
-1200.2375686303
 20
192.6305731002
 10
-1198.3016899798
 20
192.2771840219
 10
-1196.4544960711
 20
191.5811434137
 10
-1194.7521129565
 20
190.5636001171
 10
-1193.2462666852
 20
189.2554716704
 10
-1191.9827116344
 20
187.6965048944
 10
-1190.9998402849
 20
185.9340682058
 10
-1190.3275166852
 20
184.0217123516
 10
-1189.9861690478
 20
182.0175432966
 10
-1189.9861690478
 20
179.9824567034
 10
-1190.3275166852
 20
177.9782876484
 10
-1190.9998402849
 20
176.0659317942
 10
-1191.9827116344
 20
174.3034951056
 10
-1193.2462666852
 20
172.7445283296
 10
-1194.7521129565
 20
171.4363998829
 10
-1196.4544960711
 20
170.4188565863
 10
-1198.3016899798
 20
169.7228159781
 10
-1200.2375686303
 20
169.3694268998
 10
-1202.2033113294
 20
169.3694268998
 10
-1204.1391899798
 20
169.7228159781
 10
-1205.9863838885
 20
170.4188565863
 10
-1207.6887670032
 20
171.4363998829
 10
-1209.1946132744
 20
172.7445283296
 10
-1210.4581683252
 20
174.3034951056
 10
-1211.4410396747
 20
176.0659317942
 10
-1212.1133632744
 20
177.9782876484
 10
-1212.4547109119
 20
179.9824567034
 10
-1212.4547109119
 20
182.0175432966
 10
-1212.1133632744
 20
184.0217123516
 10
-1211.4410396747
 20
185.9340682058
 10
-1210.4581683252
 20
187.6965048944
 10
-1209.1946132744
 20
189.2554716704
  0
LWPOLYLINE
  5
120
330
1F
100
AcDbEntity
  8
0
  6
Continuous
 62
     7
370
    15
100
AcDbPolyline
 90
       24
 70
   128
 43
0.0
 10
-1605.417397251
 20
247.2593879052
 10
-1605.6756219895
 20
245.9782876484
 10
-1606.3479455892
 20
244.0659317942
 10
-1607.3308169387
 20
242.3034951056
 10
-1608.5943719895
 20
240.7445283296
 10
-1610.1002182608
 20
239.4363998829
 10
-1611.8026013754
 20
238.4188565863
 10
-1613.6497952841
 20
237.7228159781
 10
-1615.5856739346
 20
237.3694268998
 10
-1617.5514166337
 20
237.3694268998
 10
-1619.4872952841
 20
237.7228159781
 10
-1621.3344891928
 20
238.4188565863
 10
-1623.0368723075
 20
239.4363998829
 10
-1624.5427185787
 20
240.7445283296
 10
-1625.8062736295
 20
242.3034951056
 10
-1626.789144979
 20
244.0659317942
 10
-1627.4614685787
 20
245.9782876484
 10
-1627.8028162162
 20
247.9824567034
 10
-1627.8028162162
 20
250.0175432966
 10
-1627.4614685787
 20
252.0217123516
 10
-1626.789144979
 20
253.9340682058
 10
-1625.8062736295
 20
255.6965048944
 10
-1624.5427185787
 20
257.2554716704
 10
-1624.5427185787
 20
257.2554716704
  0
LWPOLYLINE
  5
123
330
1F
100
AcDbEntity
  8
0
  6
Continuous
 62
     7
370
    15
100
AcDbPolyline
 90
       37
 70
   128
 43
0.0
 10
-1576.2464272643
 20
189.2554716704
 10
-1574.740580993
 20
190.5636001171
 10
-1573.0381978783
 20
191.5811434137
 10
-1571.1910039697
 20
192.2771840219
 10
-1569.2551253192
 20
192.6305731002
 10
-1567.2893826201
 20
192.6305731002
 10
-1565.3535039697
 20
192.2771840219
 10
-1563.506310061
 20
191.5811434137
 10
-1561.8039269463
 20
190.5636001171
 10
-1560.2980806751
 20
189.2554716704
 10
-1559.0345256243
 20
187.6965048944
 10
-1558.0516542748
 20
185.9340682058
 10
-1557.3793306751
 20
184.0217123516
 10
-1557.0379830376
 20
182.0175432966
 10
-1557.0379830376
 20
179.9824567034
 10
-1557.3793306751
 20
177.9782876484
 10
-1558.0516542748
 20
176.0659317942
 10
-1559.0345256243
 20
174.3034951056
 10
-1560.2980806751
 20
172.7445283296
 10
-1561.8039269463
 20
171.4363998829
 10
-1563.506310061
 20
170.4188565863
 10
-1565.3535039697
 20
169.7228159781
 10
-1567.2893826201
 20
169.3694268998
 10
-1569.2551253192
 20
169.3694268998
 10
-1571.1910039697
 20
169.7228159781
 10
-1573.0381978783
 20
170.4188565863
 10
-1574.740580993
 20
171.4363998829
 10
-1576.2464272643
 20
172.7445283296
 10
-1577.5099823151
 20
174.3034951056
 10
-1578.4928536646
 20
176.0659317942
 10
-1579.1651772643
 20
177.9782876484
 10
-1579.5065249017
 20
179.9824567034
 10
-1579.5065249017
 20
182.0175432966
 10
-1579.1651772643
 20
184.0217123516
 10
-1578.4928536646
 20
185.9340682058
 10
-1577.5099823151
 20
187.6965048944
 10
-1576.2464272643
 20
189.2554716704
  0
SPLINE
  5
136
330
1F
100
AcDbEntity
  8
0
  6
Continuous
 62
     7
370
    15
100
AcDbSpline
210
0.0
220
0.0
230
1.0
 70
     8
 71
     3
 72
    25
 73
    21
 74
     0
 42
0.000000001
 43
0.00000001
 40
0.0
 40
0.0
 40
0.0
 40
0.0
 40
0.027512005592525
 40
0.0550892818697934
 40
0.0827349543323324
 40
0.1104521172653032
 40
0.1382438289846288
 40
0.1661131072077393
 40
0.1940629245778855
 40
0.2220962043699846
 40
0.2502158164046234
 40
0.3725551837182486
 40
0.4997898631074246
 40
0.6195099806815192
 40
0.7493020506488366
 40
0.7907484804446981
 40
0.8365447028107087
 40
0.8866879304044865
 40
0.9411744917019537
 40
1.0
 40
1.0
 40
1.0
 40
1.0
 10
41.23105625617649
 20
80.00000000000007
 30
0.0
 10
41.23083404196621
 20
79.99907426912783
 30
0.0
 10
41.23038908635495
 20
79.99722061113893
 30
0.0
 10
41.22677335691898
 20
79.98221786658483
 30
0.0
 10
41.22097483421334
 20
79.95822957149998
 30
0.0
 10
41.21277036652307
 20
79.92436089411925
 30
0.0
 10
41.20221231151215
 20
79.88085159278585
 30
0.0
 10
41.18928828641002
 20
79.82765805203096
 30
0.0
 10
41.17401380392323
 20
79.76483946673454
 30
0.0
 10
41.1564039775005
 20
79.69243736959525
 30
0.0
 10
41.11427959342771
 20
79.51922530829853
 30
0.0
 10
41.02915103641288
 20
79.16850617883914
 30
0.0
 10
40.8767657532386
 20
78.54554463524252
 30
0.0
 10
40.68945046233502
 20
77.779565049931
 30
0.0
 10
40.52357679401176
 20
77.10820450779077
 30
0.0
 10
40.39367824464129
 20
76.58176244423798
 30
0.0
 10
40.30953955636967
 20
76.24116583078089
 30
0.0
 10
40.21527144408143
 20
75.86154523520355
 30
0.0
 10
40.1109369997817
 20
75.44352238841043
 30
0.0
 10
40.03791110274157
 20
75.15156731179262
 30
0.0
 10
39.99999999999989
 20
75.0000000000001
 30
0.0
  0
SPLINE
  5
137
330
1F
100
AcDbEntity
  8
0
  6
Continuous
 62
     7
370
    15
100
AcDbSpline
210
0.0
220
0.0
230
1.0
 70
     8
 71
     3
 72
    26
 73
    22
 74
     0
 42
0.000000001
 43
0.00000001
 40
0.0
 40
0.0
 40
0.0
 40
0.0
 40
0.029962590156287
 40
0.0588404994276407
 40
0.0866331799794087
 40
0.1133401165533151
 40
0.1389608315898633
 40
0.1634948902235149
 40
0.1869419053243731
 40
0.2093015428055488
 40
0.2305735274770888
 40
0.2507576498149219
 40
0.3805415089134568
 40
0.5002659730948726
 40
0.6274925222254847
 40
0.7498361688232192
 40
0.8003766601175535
 40
0.8506459454767313
 40
0.9006611318409673
 40
0.9504398159603279
 40
1.0
 40
1.0
 40
1.0
 40
1.0
 10
-39.99999999999989
 20
75.00000000000013
 30
0.0
 10
-40.01930019597764
 20
75.07718226925749
 30
0.0
 10
-40.05720189821564
 20
75.22875271915436
 30
0.0
 10
-40.11289630385608
 20
75.45147127152325
 30
0.0
 10
-40.16622790736988
 20
75.6650301325798
 30
0.0
 10
-40.21710658326074
 20
75.869172557442
 30
0.0
 10
-40.2654747227464
 20
76.06371861205741
 30
0.0
 10
-40.31131059087577
 20
76.24855496761612
 30
0.0
 10
-40.35462149403966
 20
76.42362968934452
 30
0.0
 10
-40.39544257836658
 20
76.58893865276886
 30
0.0
 10
-40.43382452162393
 20
76.7445399075049
 30
0.0
 10
-40.53572797040469
 20
77.15723432351889
 30
0.0
 10
-40.68945937705259
 20
77.77965867323731
 30
0.0
 10
-40.87677216303791
 20
78.54555406867641
 30
0.0
 10
-41.02915754083324
 20
79.16854072702112
 30
0.0
 10
-41.1211489850021
 20
79.54751500883827
 30
0.0
 10
-41.17148165597538
 20
79.75442466536958
 30
0.0
 10
-41.19819093597899
 20
79.86427976785882
 30
0.0
 10
-41.21710086626596
 20
79.94220313216682
 30
0.0
 10
-41.22888703525954
 20
79.9909663913354
 30
0.0
 10
-41.23033424360298
 20
79.99699321586442
 30
0.0
 10
-41.23105625617647
 20
80.00000000000007
 30
0.0
  0
LWPOLYLINE
  5
139
330
1F
100
AcDbEntity
  8
0
  6
Continuous
 62
     7
370
    15
100
AcDbPolyline
 90
        3
 70
   128
 43
0.0
 10
-32.3109888428
 20
84.0
 10
-30.7745789781
 20
84.5749684524
 10
-29.5
 20
85.0279365856
  0
LWPOLYLINE
  5
13A
330
1F
100
AcDbEntity
  8
0
  6
Continuous
 62
     7
370
    15
100
AcDbPolyline
 90
        3
 70
   128
 43
0.0
 10
29.5
 20
85.0279365856
 10
30.7745789781
 20
84.5749684524
 10
32.3109888428
 20
84.0
  0
SPLINE
  5
13C
330
1F
100
AcDbEntity
  8
0
  6
Continuous
 62
     7
370
    15
100
AcDbSpline
210
0.0
220
0.0
230
1.0
 70
     8
 71
     3
 72
    25
 73
    21
 74
     0
 42
0.000000001
 43
0.00000001
 40
0.0
 40
0.0
 40
0.0
 40
0.0
 40
0.0275120055925251
 40
0.0550892818697935
 40
0.082734954332331
 40
0.1104521172653025
 40
0.1382438289846311
 40
0.1661131072077389
 40
0.194062924577885
 40
0.2220962043699836
 40
0.2502158164046239
 40
0.3725551837182493
 40
0.4997898631074246
 40
0.6195099806815181
 40
0.7493020506488366
 40
0.7907484804447013
 40
0.8365447028107059
 40
0.8866879304044794
 40
0.9411744917019536
 40
1.0
 40
1.0
 40
1.0
 40
1.0
 10
-41.23105625617647
 20
349.9999999999999
 30
0.0
 10
-41.23083404196619
 20
350.0009257308721
 30
0.0
 10
-41.23038908635494
 20
350.002779388861
 30
0.0
 10
-41.22677335691891
 20
350.0177821334152
 30
0.0
 10
-41.22097483421334
 20
350.0417704284997
 30
0.0
 10
-41.21277036652309
 20
350.0756391058806
 30
0.0
 10
-41.20221231151211
 20
350.1191484072143
 30
0.0
 10
-41.18928828641001
 20
350.172341947969
 30
0.0
 10
-41.17401380392321
 20
350.2351605332655
 30
0.0
 10
-41.15640397750049
 20
350.3075626304047
 30
0.0
 10
-41.11427959342768
 20
350.4807746917015
 30
0.0
 10
-41.02915103641291
 20
350.8314938211609
 30
0.0
 10
-40.87676575323857
 20
351.4544553647576
 30
0.0
 10
-40.68945046233498
 20
352.2204349500689
 30
0.0
 10
-40.52357679401174
 20
352.8917954922092
 30
0.0
 10
-40.39367824464126
 20
353.4182375557619
 30
0.0
 10
-40.30953955636971
 20
353.7588341692191
 30
0.0
 10
-40.2152714440814
 20
354.1384547647964
 30
0.0
 10
-40.11093699978167
 20
354.5564776115894
 30
0.0
 10
-40.03791110274154
 20
354.8484326882074
 30
0.0
 10
-39.99999999999987
 20
354.9999999999999
 30
0.0
  0
SPLINE
  5
13D
330
1F
100
AcDbEntity
  8
0
  6
Continuous
 62
     7
370
    15
100
AcDbSpline
210
0.0
220
0.0
230
1.0
 70
     8
 71
     3
 72
    26
 73
    22
 74
     0
 42
0.000000001
 43
0.00000001
 40
0.0
 40
0.0
 40
0.0
 40
0.0
 40
0.0299625901562949
 40
0.0588404994276391
 40
0.0866331799794109
 40
0.1133401165533209
 40
0.1389608315898691
 40
0.1634948902235206
 40
0.1869419053243821
 40
0.2093015428055437
 40
0.2305735274770902
 40
0.250757649814918
 40
0.3805415089134616
 40
0.5002659730948784
 40
0.6274925222254878
 40
0.7498361688232182
 40
0.8003766601175526
 40
0.8506459454767312
 40
0.900661131840966
 40
0.9504398159603281
 40
1.0
 40
1.0
 40
1.0
 40
1.0
 10
39.99999999999985
 20
354.9999999999999
 30
0.0
 10
40.01930019597762
 20
354.9228177307424
 30
0.0
 10
40.05720189821565
 20
354.7712472808456
 30
0.0
 10
40.11289630385608
 20
354.5485287284769
 30
0.0
 10
40.16622790736988
 20
354.3349698674201
 30
0.0
 10
40.21710658326072
 20
354.1308274425579
 30
0.0
 10
40.26547472274641
 20
353.9362813879425
 30
0.0
 10
40.31131059087577
 20
353.7514450323839
 30
0.0
 10
40.35462149403966
 20
353.5763703106554
 30
0.0
 10
40.39544257836656
 20
353.4110613472312
 30
0.0
 10
40.43382452162391
 20
353.255460092495
 30
0.0
 10
40.53572797040461
 20
352.8427656764811
 30
0.0
 10
40.68945937705262
 20
352.2203413267625
 30
0.0
 10
40.87677216303788
 20
351.4544459313236
 30
0.0
 10
41.02915754083327
 20
350.8314592729788
 30
0.0
 10
41.12114898500204
 20
350.4524849911617
 30
0.0
 10
41.17148165597536
 20
350.2455753346305
 30
0.0
 10
41.19819093597896
 20
350.1357202321411
 30
0.0
 10
41.21710086626592
 20
350.0577968678332
 30
0.0
 10
41.22888703525958
 20
350.0090336086644
 30
0.0
 10
41.230334243603
 20
350.0030067841356
 30
0.0
 10
41.23105625617645
 20
349.9999999999999
 30
0.0
  0
LWPOLYLINE
  5
13F
330
1F
100
AcDbEntity
  8
0
  6
Continuous
 62
     7
370
    15
100
AcDbPolyline
 90
        3
 70
   128
 43
0.0
 10
32.3109888428
 20
346.0
 10
30.7745789781
 20
345.4250315476
 10
29.5
 20
344.9720634144
  0
LWPOLYLINE
  5
140
330
1F
100
AcDbEntity
  8
0
  6
Continuous
 62
     7
370
    15
100
AcDbPolyline
 90
        3
 70
   128
 43
0.0
 10
-29.5
 20
344.9720634144
 10
-30.7745789781
 20
345.4250315476
 10
-32.3109888428
 20
346.0
  0
SPLINE
  5
143
330
1F
100
AcDbEntity
  8
0
  6
Continuous
 62
     7
370
    15
100
AcDbSpline
210
0.0
220
0.0
230
1.0
 70
    24
 71
     3
 72
    12
 73
     8
 74
     0
 42
0.000000001
 43
0.00000001
 40
0.0
 40
0.0
 40
0.0
 40
0.0
 40
0.2303115229470411
 40
0.467765550943997
 40
0.7119124253152589
 40
0.9027479307162997
 40
0.9999999999999999
 40
0.9999999999999999
 40
0.9999999999999999
 40
0.9999999999999999
 10
22.87154421612408
 20
335.0
 30
0.0
 10
23.3825499096636
 20
335.0
 30
0.0
 10
24.42040879190892
 20
335.0
 30
0.0
 10
25.53176274963367
 20
335.0000000000001
 30
0.0
 10
26.2009964687299
 20
335.0000000000001
 30
0.0
 10
26.49133390283732
 20
334.9999999999999
 30
0.0
 10
26.47266940851772
 20
335.0000000000001
 30
0.0
 10
26.46636868313342
 20
335.0000000000001
 30
0.0
  0
SPLINE
  5
144
330
1F
100
AcDbEntity
  8
0
  6
Continuous
 62
     7
370
    15
100
AcDbSpline
210
0.0
220
0.0
230
1.0
 70
    24
 71
     3
 72
    27
 73
    23
 74
     0
 42
0.000000001
 43
0.00000001
 40
0.0
 40
0.0
 40
0.0
 40
0.0
 40
0.0189839681259119
 40
0.0979260140840878
 40
0.1374460210515894
 40
0.1769738043860855
 40
0.215670418581971
 40
0.2543746471183088
 40
0.3285907846791248
 40
0.398612640399938
 40
0.4453122862729659
 40
0.4934636754461678
 40
0.5429704862196705
 40
0.5816670998016106
 40
0.6203713277259694
 40
0.6993133736841459
 40
0.7388333806515563
 40
0.7783611639861507
 40
0.8170577781822591
 40
0.8557620067183711
 40
0.929978144279187
 40
1.0
 40
1.0
 40
1.0
 40
1.0
 10
-26.46636868313858
 20
335.0000000000002
 30
0.0
 10
-26.47204984234558
 20
335.0000000000002
 30
0.0
 10
-26.50135526852563
 20
335.0000000000003
 30
0.0
 10
-25.94673023178256
 20
335.0000000000002
 30
0.0
 10
-24.85625117852229
 20
335.0000000000001
 30
0.0
 10
-23.76722336704244
 20
335.0000000000002
 30
0.0
 10
-22.44389970073493
 20
335.0000000000001
 30
0.0
 10
-20.4270483214181
 20
335.0000000000003
 30
0.0
 10
-17.4987887866978
 20
335.0000000000001
 30
0.0
 10
-13.89797679397556
 20
335.0
 30
0.0
 10
-10.49927659245547
 20
335.0000000000002
 30
0.0
 10
-7.359041385844781
 20
335.0000000000002
 30
0.0
 10
-4.280800305911471
 20
335.0000000000001
 30
0.0
 10
-1.36567008431535
 20
335.0000000000001
 30
0.0
 10
2.242925470197979
 20
335.0000000000001
 30
0.0
 10
5.85392710559274
 20
335.0000000000001
 30
0.0
 10
9.329906576324644
 20
334.9999999999999
 30
0.0
 10
11.82234353539567
 20
335.0
 30
0.0
 10
14.17669300519649
 20
335.0
 30
0.0
 10
17.03136988020486
 20
335.0000000000001
 30
0.0
 10
20.1479037538798
 20
335.0
 30
0.0
 10
21.9814364317185
 20
334.9999999999999
 30
0.0
 10
22.87154421612408
 20
335.0
 30
0.0
  0
SPLINE
  5
145
330
1F
100
AcDbEntity
  8
0
  6
Continuous
 62
     7
370
    15
100
AcDbSpline
210
0.0
220
0.0
230
1.0
 70
    24
 71
     3
 72
    10
 73
     6
 74
     0
 42
0.000000001
 43
0.00000001
 40
0.0
 40
0.0
 40
0.0
 40
0.0
 40
0.3456084625741543
 40
0.7119187372240384
 40
1.0
 40
1.0
 40
1.0
 40
1.0
 10
16.13142866787623
 20
332.0
 30
0.0
 10
16.65071462971357
 20
332.0
 30
0.0
 10
17.72039157991292
 20
331.9999999999999
 30
0.0
 10
18.57077197106856
 20
332.0
 30
0.0
 10
18.60504446030758
 20
332.0000000000001
 30
0.0
 10
18.62013215844208
 20
332.0000000000001
 30
0.0
  0
SPLINE
  5
146
330
1F
100
AcDbEntity
  8
0
  6
Continuous
 62
     7
370
    15
100
AcDbSpline
210
0.0
220
0.0
230
1.0
 70
    24
 71
     3
 72
    23
 73
    19
 74
     0
 42
0.000000001
 43
0.00000001
 40
0.0
 40
0.0
 40
0.0
 40
0.0
 40
0.0189440978384205
 40
0.0979240179703733
 40
0.1769039381023252
 40
0.2156175264750413
 40
0.254341915831801
 40
0.328593660208438
 40
0.3986491104465899
 40
0.4687045606847423
 40
0.5429563050613786
 40
0.620294987391824
 40
0.6992749075237766
 40
0.7782548276557285
 40
0.816968416028457
 40
0.8556928053852111
 40
0.9299445497618462
 40
1.0
 40
1.0
 40
1.0
 40
1.0
 10
-18.62013215845199
 20
332.0000000000001
 30
0.0
 10
-18.64134748269835
 20
332.0000000000001
 30
0.0
 10
-18.75101170690515
 20
332.0000000000001
 30
0.0
 10
-18.17054206623633
 20
332.0000000000001
 30
0.0
 10
-17.08324604678169
 20
332.0000000000001
 30
0.0
 10
-15.82881898298123
 20
332.0000000000001
 30
0.0
 10
-14.40791299783135
 20
332.0000000000003
 30
0.0
 10
-12.34157541313895
 20
331.9999999999998
 30
0.0
 10
-9.492997034139687
 20
332.0000000000002
 30
0.0
 10
-6.320702419536988
 20
332.0
 30
0.0
 10
-2.808450154638959
 20
332.0
 30
0.0
 10
0.9591125748854837
 20
332.0
 30
0.0
 10
4.764940467853543
 20
331.9999999999999
 30
0.0
 10
7.779401177252464
 20
331.9999999999999
 30
0.0
 10
9.99873452130348
 20
332.0000000000001
 30
0.0
 10
12.01238152090006
 20
332.0
 30
0.0
 10
14.21040644380396
 20
332.0
 30
0.0
 10
15.50362303076439
 20
332.0
 30
0.0
 10
16.13142866787623
 20
332.0
 30
0.0
  0
SPLINE
  5
147
330
1F
100
AcDbEntity
  8
0
  6
Continuous
 62
     7
370
    15
100
AcDbSpline
210
0.0
220
0.0
230
1.0
 70
    24
 71
     3
 72
    12
 73
     8
 74
     0
 42
0.000000001
 43
0.00000001
 40
0.0
 40
0.0
 40
0.0
 40
0.0
 40
0.2303115229470303
 40
0.4677655509439822
 40
0.7119124253152401
 40
0.9027479307162855
 40
0.9999999999999999
 40
0.9999999999999999
 40
0.9999999999999999
 40
0.9999999999999999
 10
-22.87154421613387
 20
95.00000000000016
 30
0.0
 10
-23.3825499096734
 20
95.00000000000014
 30
0.0
 10
-24.42040879191875
 20
95.00000000000017
 30
0.0
 10
-25.53176274964347
 20
95.00000000000013
 30
0.0
 10
-26.20099646873973
 20
95.0000000000002
 30
0.0
 10
-26.49133390284715
 20
95.00000000000013
 30
0.0
 10
-26.47266940852755
 20
95.00000000000014
 30
0.0
 10
-26.46636868314325
 20
95.00000000000014
 30
0.0
  0
SPLINE
  5
148
330
1F
100
AcDbEntity
  8
0
  6
Continuous
 62
     7
370
    15
100
AcDbSpline
210
0.0
220
0.0
230
1.0
 70
    24
 71
     3
 72
    27
 73
    23
 74
     0
 42
0.000000001
 43
0.00000001
 40
0.0
 40
0.0
 40
0.0
 40
0.0
 40
0.0189839681259135
 40
0.0979260140840892
 40
0.1374460210515907
 40
0.1769738043860852
 40
0.215670418581972
 40
0.254374647118311
 40
0.3285907846791256
 40
0.3986126403999386
 40
0.4453122862729663
 40
0.493463675446168
 40
0.5429704862196709
 40
0.5816670998016108
 40
0.6203713277259696
 40
0.6993133736841463
 40
0.7388333806515567
 40
0.7783611639861511
 40
0.8170577781822578
 40
0.8557620067183708
 40
0.9299781442791856
 40
0.9999999999999999
 40
0.9999999999999999
 40
0.9999999999999999
 40
0.9999999999999999
 10
26.46636868312872
 20
94.99999999999996
 30
0.0
 10
26.47204984233572
 20
94.99999999999996
 30
0.0
 10
26.50135526851578
 20
94.99999999999996
 30
0.0
 10
25.94673023177272
 20
94.99999999999999
 30
0.0
 10
24.8562511785125
 20
94.99999999999997
 30
0.0
 10
23.76722336703256
 20
95.00000000000001
 30
0.0
 10
22.44389970072513
 20
95.00000000000001
 30
0.0
 10
20.42704832140836
 20
94.99999999999996
 30
0.0
 10
17.49878878668796
 20
95.00000000000006
 30
0.0
 10
13.89797679396579
 20
95.00000000000003
 30
0.0
 10
10.4992765924457
 20
95.00000000000009
 30
0.0
 10
7.359041385834991
 20
95.00000000000006
 30
0.0
 10
4.280800305901731
 20
95.0000000000001
 30
0.0
 10
1.365670084305575
 20
95.0000000000001
 30
0.0
 10
-2.242925470207742
 20
95.00000000000006
 30
0.0
 10
-5.853927105602497
 20
95.00000000000014
 30
0.0
 10
-9.329906576334416
 20
95.00000000000013
 30
0.0
 10
-11.82234353540536
 20
95.00000000000013
 30
0.0
 10
-14.17669300520637
 20
95.00000000000013
 30
0.0
 10
-17.03136988021452
 20
95.00000000000016
 30
0.0
 10
-20.14790375388968
 20
95.00000000000011
 30
0.0
 10
-21.98143643172832
 20
95.00000000000018
 30
0.0
 10
-22.87154421613388
 20
95.00000000000017
 30
0.0
  0
SPLINE
  5
149
330
1F
100
AcDbEntity
  8
0
  6
Continuous
 62
     7
370
    15
100
AcDbSpline
210
0.0
220
0.0
230
1.0
 70
    24
 71
     3
 72
    10
 73
     6
 74
     0
 42
0.000000001
 43
0.00000001
 40
0.0
 40
0.0
 40
0.0
 40
0.0
 40
0.3456084625741607
 40
0.7119187372240303
 40
0.9999999999999999
 40
0.9999999999999999
 40
0.9999999999999999
 40
0.9999999999999999
 10
-16.13142866788604
 20
98.00000000000014
 30
0.0
 10
-16.65071462972338
 20
98.00000000000013
 30
0.0
 10
-17.72039157992269
 20
98.00000000000013
 30
0.0
 10
-18.57077197107841
 20
98.00000000000014
 30
0.0
 10
-18.60504446031742
 20
98.00000000000016
 30
0.0
 10
-18.62013215845192
 20
98.00000000000013
 30
0.0
  0
SPLINE
  5
14A
330
1F
100
AcDbEntity
  8
0
  6
Continuous
 62
     7
370
    15
100
AcDbSpline
210
0.0
220
0.0
230
1.0
 70
    24
 71
     3
 72
    23
 73
    19
 74
     0
 42
0.000000001
 43
0.00000001
 40
0.0
 40
0.0
 40
0.0
 40
0.0
 40
0.018944097838416
 40
0.0979240179703671
 40
0.1769039381023216
 40
0.2156175264750379
 40
0.2543419158317979
 40
0.3285936602084352
 40
0.3986491104465875
 40
0.4687045606847404
 40
0.542956305061377
 40
0.6202949873918232
 40
0.6992749075237766
 40
0.7782548276557301
 40
0.8169684160284589
 40
0.8556928053852119
 40
0.9299445497618491
 40
1.0
 40
1.0
 40
1.0
 40
1.0
 10
18.62013215844215
 20
98.0
 30
0.0
 10
18.64134748268851
 20
98.00000000000001
 30
0.0
 10
18.75101170689531
 20
98.0
 30
0.0
 10
18.17054206622644
 20
97.99999999999994
 30
0.0
 10
17.08324604677189
 20
98.00000000000003
 30
0.0
 10
15.8288189829714
 20
98.00000000000001
 30
0.0
 10
14.40791299782153
 20
98.00000000000001
 30
0.0
 10
12.34157541312915
 20
98.00000000000004
 30
0.0
 10
9.492997034129878
 20
98.00000000000004
 30
0.0
 10
6.320702419527197
 20
98.00000000000009
 30
0.0
 10
2.808450154629159
 20
98.00000000000009
 30
0.0
 10
-0.9591125748952672
 20
98.0000000000001
 30
0.0
 10
-4.764940467863348
 20
98.00000000000011
 30
0.0
 10
-7.77940117726225
 20
98.0000000000001
 30
0.0
 10
-9.998734521313237
 20
98.00000000000013
 30
0.0
 10
-12.01238152090995
 20
98.0000000000001
 30
0.0
 10
-14.21040644381364
 20
98.00000000000014
 30
0.0
 10
-15.50362303077417
 20
98.00000000000016
 30
0.0
 10
-16.13142866788604
 20
98.00000000000014
 30
0.0
  0
LWPOLYLINE
  5
14B
330
1F
100
AcDbEntity
  8
0
  6
Continuous
 62
     7
370
    15
100
AcDbPolyline
 90
       29
 70
   128
 43
0.0
 10
-341.8418527494
 20
190.0
 10
-341.6155486516
 20
190.0010978343
 10
-338.7611847196
 20
190.2042726234
 10
-335.9500666139
 20
190.755525072
 10
-333.2216562705
 20
191.6471168039
 10
-330.6142545899
 20
192.8665318258
 10
-328.1644637764
 20
194.3966522237
 10
-325.9066735228
 20
196.2159984613
 10
-323.8725782552
 20
198.2990309055
 10
-322.0907322123
 20
200.6165083468
 10
-320.5861486068
 20
203.1358984818
 10
-319.3799484944
 20
205.8218345958
 10
-318.4890642807
 20
208.6366120332
 10
-317.9260020271
 20
211.540717489
 10
-317.6986658934
 20
214.4933836884
 10
-317.8102471807
 20
217.4531616703
 10
-318.2591795322
 20
220.3785026397
 10
-319.0391609219
 20
223.2283412219
 10
-320.1392421207
 20
225.9626719301
 10
-321.5439804
 20
228.5431107549
 10
-323.2336563136
 20
230.9334339915
 10
-325.1845505155
 20
233.1000867414
 10
-327.3692767275
 20
235.0126539494
 10
-329.7571661825
 20
236.6442873641
 10
-332.314698147
 20
237.9720824292
 10
-335.0059704784
 20
238.9773998123
 10
-337.7932036124
 20
239.6461270612
 10
-340.6372709055
 20
239.9688767112
 10
-341.8418527494
 20
240.0
  0
LWPOLYLINE
  5
14C
330
1F
100
AcDbEntity
  8
0
  6
Continuous
 62
     7
370
    15
100
AcDbPolyline
 90
       54
 70
   128
 43
0.0
 10
-352.5596668934
 20
237.7831890764
 10
-349.8870670792
 20
238.8405494618
 10
-347.1124298474
 20
239.5632407919
 10
-344.2747050226
 20
239.9411180645
 10
-341.4137280408
 20
239.9688767112
 10
-338.5696607477
 20
239.6461270612
 10
-335.7824276137
 20
238.9773998123
 10
-333.0911552824
 20
237.9720824292
 10
-330.5336233178
 20
236.6442873641
 10
-328.1457338628
 20
235.0126539494
 10
-325.9610076508
 20
233.1000867414
 10
-324.0101134489
 20
230.9334339915
 10
-322.3204375353
 20
228.5431107549
 10
-320.915699256
 20
225.9626719301
 10
-319.8156180572
 20
223.2283412219
 10
-319.0356366675
 20
220.3785026397
 10
-318.586704316
 20
217.4531616703
 10
-318.4751230287
 20
214.4933836884
 10
-318.7024591624
 20
211.540717489
 10
-319.265521416
 20
208.6366120332
 10
-320.1564056298
 20
205.8218345958
 10
-321.3626057422
 20
203.1358984818
 10
-322.8671893476
 20
200.6165083468
 10
-324.6490353905
 20
198.2990309055
 10
-326.6831306581
 20
196.2159984613
 10
-328.9409209117
 20
194.3966522237
 10
-331.3907117252
 20
192.8665318258
 10
-333.9981134058
 20
191.6471168039
 10
-336.7265237492
 20
190.755525072
 10
-339.5376418549
 20
190.2042726234
 10
-342.392005787
 20
190.0010978343
 10
-345.2495465324
 20
190.1488528334
 10
-348.0701504831
 20
190.6454634643
 10
-350.8142225424
 20
191.4839584024
 10
-353.4432419536
 20
192.6525670166
 10
-355.9203030471
 20
194.1348846038
 10
-358.2106333149
 20
195.9101026743
 10
-360.2820815406
 20
197.9533010576
 10
-362.1055691317
 20
200.2357977273
 10
-363.6554983195
 20
202.7255514334
 10
-364.9101114959
 20
205.3876114914
 10
-365.8517966418
 20
208.1846084134
 10
-366.4673345621
 20
211.0772784938
 10
-366.7480844536
 20
214.0250149854
 10
-366.6901052033
 20
216.9864381295
 10
-366.2942107127
 20
219.9199760365
 10
-365.5659584728
 20
222.7844482647
 10
-364.5155715485
 20
225.539643903
 10
-363.1577950698
 20
228.1468860441
 10
-361.5116892423
 20
230.5695747234
 10
-359.6003617834
 20
232.7737007026
 10
-357.4506435409
 20
234.7283228843
 10
-355.0927118468
 20
236.4060026577
 10
-352.5596668934
 20
237.7831890764
  0
LWPOLYLINE
  5
14D
330
1F
100
AcDbEntity
  8
0
  6
Continuous
 62
     7
370
    15
100
AcDbPolyline
 90
       54
 70
   128
 43
0.0
 10
236.655087143
 20
237.7831890764
 10
239.3276869571
 20
238.8405494618
 10
242.1023241889
 20
239.5632407919
 10
244.9400490138
 20
239.9411180645
 10
247.8010259955
 20
239.9688767112
 10
250.6450932886
 20
239.6461270612
 10
253.4323264226
 20
238.9773998123
 10
256.123598754
 20
237.9720824292
 10
258.6811307185
 20
236.6442873641
 10
261.0690201736
 20
235.0126539494
 10
263.2537463856
 20
233.1000867414
 10
265.2046405875
 20
230.9334339915
 10
266.8943165011
 20
228.5431107549
 10
268.2990547804
 20
225.9626719301
 10
269.3991359792
 20
223.2283412219
 10
270.1791173688
 20
220.3785026397
 10
270.6280497203
 20
217.4531616703
 10
270.7396310076
 20
214.4933836884
 10
270.512294874
 20
211.540717489
 10
269.9492326203
 20
208.6366120332
 10
269.0583484066
 20
205.8218345958
 10
267.8521482942
 20
203.1358984818
 10
266.3475646887
 20
200.6165083467
 10
264.5657186459
 20
198.2990309055
 10
262.5316233783
 20
196.2159984613
 10
260.2738331247
 20
194.3966522237
 10
257.8240423111
 20
192.8665318258
 10
255.2166406306
 20
191.6471168039
 10
252.4882302872
 20
190.7555250719
 10
249.6771121814
 20
190.2042726234
 10
246.8227482494
 20
190.0010978343
 10
243.9652075039
 20
190.1488528334
 10
241.1446035532
 20
190.6454634643
 10
238.400531494
 20
191.4839584023
 10
235.7715120827
 20
192.6525670166
 10
233.2944509892
 20
194.1348846038
 10
231.0041207214
 20
195.9101026743
 10
228.9326724957
 20
197.9533010576
 10
227.1091849047
 20
200.2357977273
 10
225.5592557168
 20
202.7255514334
 10
224.3046425405
 20
205.3876114913
 10
223.3629573946
 20
208.1846084134
 10
222.7474194743
 20
211.0772784938
 10
222.4666695827
 20
214.0250149854
 10
222.5246488331
 20
216.9864381295
 10
222.9205433236
 20
219.9199760365
 10
223.6487955636
 20
222.7844482647
 10
224.6991824878
 20
225.539643903
 10
226.0569589665
 20
228.1468860441
 10
227.703064794
 20
230.5695747234
 10
229.614392253
 20
232.7737007026
 10
231.7641104954
 20
234.7283228843
 10
234.1220421895
 20
236.4060026577
 10
236.655087143
 20
237.7831890764
  0
LWPOLYLINE
  5
14E
330
1F
100
AcDbEntity
  8
0
  6
Continuous
 62
     7
370
    15
100
AcDbPolyline
 90
       29
 70
   128
 43
0.0
 10
247.372901287
 20
190.0
 10
247.5992053847
 20
190.0010978343
 10
250.4535693167
 20
190.2042726234
 10
253.2646874225
 20
190.7555250719
 10
255.9930977659
 20
191.6471168039
 10
258.6004994464
 20
192.8665318258
 10
261.05029026
 20
194.3966522237
 10
263.3080805136
 20
196.2159984613
 10
265.3421757812
 20
198.2990309055
 10
267.124021824
 20
200.6165083467
 10
268.6286054295
 20
203.1358984818
 10
269.8348055419
 20
205.8218345958
 10
270.7256897557
 20
208.6366120332
 10
271.2887520093
 20
211.540717489
 10
271.5160881429
 20
214.4933836884
 10
271.4045068556
 20
217.4531616703
 10
270.9555745041
 20
220.3785026397
 10
270.1755931145
 20
223.2283412219
 10
269.0755119157
 20
225.9626719301
 10
267.6707736364
 20
228.5431107549
 10
265.9810977228
 20
230.9334339915
 10
264.0302035209
 20
233.1000867414
 10
261.8454773089
 20
235.0126539494
 10
259.4575878538
 20
236.6442873641
 10
256.9000558893
 20
237.9720824292
 10
254.2087835579
 20
238.9773998123
 10
251.421550424
 20
239.6461270612
 10
248.5774831308
 20
239.9688767112
 10
247.372901287
 20
240.0
  0
LWPOLYLINE
  5
14F
330
1F
100
AcDbEntity
  8
0
  6
Continuous
 62
     7
370
    15
100
AcDbPolyline
 90
       29
 70
   128
 43
0.0
 10
97.6543982122
 20
190.0
 10
97.8807023099
 20
190.0010978343
 10
100.7350662419
 20
190.2042726234
 10
103.5461843477
 20
190.7555250719
 10
106.2745946911
 20
191.6471168039
 10
108.8819963716
 20
192.8665318258
 10
111.3317871852
 20
194.3966522237
 10
113.5895774388
 20
196.2159984613
 10
115.6236727064
 20
198.2990309055
 10
117.4055187492
 20
200.6165083467
 10
118.9101023547
 20
203.1358984818
 10
120.1163024671
 20
205.8218345958
 10
121.0071866808
 20
208.6366120332
 10
121.5702489345
 20
211.540717489
 10
121.7975850681
 20
214.4933836884
 10
121.6860037808
 20
217.4531616703
 10
121.2370714293
 20
220.3785026397
 10
120.4570900397
 20
223.2283412219
 10
119.3570088409
 20
225.9626719301
 10
117.9522705616
 20
228.5431107549
 10
116.262594648
 20
230.9334339915
 10
114.3117004461
 20
233.1000867414
 10
112.1269742341
 20
235.0126539494
 10
109.739084779
 20
236.6442873641
 10
107.1815528145
 20
237.9720824292
 10
104.4902804831
 20
238.9773998123
 10
101.7030473491
 20
239.6461270612
 10
98.858980056
 20
239.9688767112
 10
97.6543982122
 20
240.0
  0
LWPOLYLINE
  5
150
330
1F
100
AcDbEntity
  8
0
  6
Continuous
 62
     7
370
    15
100
AcDbPolyline
 90
       54
 70
   128
 43
0.0
 10
86.9365840682
 20
237.7831890764
 10
89.6091838823
 20
238.8405494618
 10
92.3838211141
 20
239.5632407919
 10
95.221545939
 20
239.9411180645
 10
98.0825229207
 20
239.9688767112
 10
100.9265902138
 20
239.6461270612
 10
103.7138233478
 20
238.9773998123
 10
106.4050956792
 20
237.9720824292
 10
108.9626276437
 20
236.6442873641
 10
111.3505170988
 20
235.0126539494
 10
113.5352433108
 20
233.1000867414
 10
115.4861375127
 20
230.9334339915
 10
117.1758134263
 20
228.5431107549
 10
118.5805517056
 20
225.9626719301
 10
119.6806329044
 20
223.2283412219
 10
120.460614294
 20
220.3785026397
 10
120.9095466455
 20
217.4531616703
 10
121.0211279328
 20
214.4933836884
 10
120.7937917992
 20
211.540717489
 10
120.2307295455
 20
208.6366120332
 10
119.3398453318
 20
205.8218345958
 10
118.1336452194
 20
203.1358984818
 10
116.6290616139
 20
200.6165083467
 10
114.847215571
 20
198.2990309055
 10
112.8131203034
 20
196.2159984613
 10
110.5553300499
 20
194.3966522237
 10
108.1055392363
 20
192.8665318258
 10
105.4981375558
 20
191.6471168039
 10
102.7697272124
 20
190.7555250719
 10
99.9586091066
 20
190.2042726234
 10
97.1042451746
 20
190.0010978343
 10
94.2467044291
 20
190.1488528334
 10
91.4261004784
 20
190.6454634643
 10
88.6820284192
 20
191.4839584023
 10
86.0530090079
 20
192.6525670166
 10
83.5759479144
 20
194.1348846038
 10
81.2856176466
 20
195.9101026743
 10
79.2141694209
 20
197.9533010576
 10
77.3906818298
 20
200.2357977273
 10
75.840752642
 20
202.7255514334
 10
74.5861394657
 20
205.3876114913
 10
73.6444543198
 20
208.1846084134
 10
73.0289163995
 20
211.0772784938
 10
72.7481665079
 20
214.0250149854
 10
72.8061457582
 20
216.9864381295
 10
73.2020402488
 20
219.9199760365
 10
73.9302924888
 20
222.7844482647
 10
74.980679413
 20
225.539643903
 10
76.3384558917
 20
228.1468860441
 10
77.9845617192
 20
230.5695747234
 10
79.8958891781
 20
232.7737007026
 10
82.0456074206
 20
234.7283228843
 10
84.4035391147
 20
236.4060026577
 10
86.9365840682
 20
237.7831890764
  0
LWPOLYLINE
  5
151
330
1F
100
AcDbEntity
  8
0
  6
Continuous
 62
     7
370
    15
100
AcDbPolyline
 90
       29
 70
   128
 43
0.0
 10
-192.1233496746
 20
190.0
 10
-191.8970455768
 20
190.0010978343
 10
-189.0426816448
 20
190.2042726234
 10
-186.2315635391
 20
190.7555250719
 10
-183.5031531957
 20
191.6471168039
 10
-180.8957515151
 20
192.8665318258
 10
-178.4459607016
 20
194.3966522237
 10
-176.188170448
 20
196.2159984613
 10
-174.1540751804
 20
198.2990309055
 10
-172.3722291375
 20
200.6165083467
 10
-170.867645532
 20
203.1358984818
 10
-169.6614454196
 20
205.8218345958
 10
-168.7705612059
 20
208.6366120332
 10
-168.2074989523
 20
211.540717489
 10
-167.9801628186
 20
214.4933836884
 10
-168.0917441059
 20
217.4531616703
 10
-168.5406764574
 20
220.3785026397
 10
-169.3206578471
 20
223.2283412219
 10
-170.4207390459
 20
225.9626719301
 10
-171.8254773252
 20
228.5431107549
 10
-173.5151532388
 20
230.9334339915
 10
-175.4660474407
 20
233.1000867414
 10
-177.6507736527
 20
235.0126539494
 10
-180.0386631077
 20
236.6442873641
 10
-182.5961950722
 20
237.9720824292
 10
-185.2874674036
 20
238.9773998123
 10
-188.0747005376
 20
239.6461270612
 10
-190.9187678307
 20
239.9688767112
 10
-192.1233496746
 20
240.0
  0
LWPOLYLINE
  5
152
330
1F
100
AcDbEntity
  8
0
  6
Continuous
 62
     7
370
    15
100
AcDbPolyline
 90
       54
 70
   128
 43
0.0
 10
-202.8411638186
 20
237.7831890764
 10
-200.1685640044
 20
238.8405494618
 10
-197.3939267726
 20
239.5632407919
 10
-194.5562019477
 20
239.9411180645
 10
-191.695224966
 20
239.9688767112
 10
-188.8511576729
 20
239.6461270612
 10
-186.0639245389
 20
238.9773998123
 10
-183.3726522075
 20
237.9720824292
 10
-180.815120243
 20
236.6442873641
 10
-178.427230788
 20
235.0126539494
 10
-176.242504576
 20
233.1000867414
 10
-174.2916103741
 20
230.9334339915
 10
-172.6019344605
 20
228.5431107549
 10
-171.1971961812
 20
225.9626719301
 10
-170.0971149824
 20
223.2283412219
 10
-169.3171335927
 20
220.3785026397
 10
-168.8682012412
 20
217.4531616703
 10
-168.7566199539
 20
214.4933836884
 10
-168.9839560876
 20
211.540717489
 10
-169.5470183412
 20
208.6366120332
 10
-170.4379025549
 20
205.8218345958
 10
-171.6441026674
 20
203.1358984818
 10
-173.1486862728
 20
200.6165083467
 10
-174.9305323157
 20
198.2990309055
 10
-176.9646275833
 20
196.2159984613
 10
-179.2224178369
 20
194.3966522237
 10
-181.6722086504
 20
192.8665318258
 10
-184.279610331
 20
191.6471168039
 10
-187.0080206744
 20
190.7555250719
 10
-189.8191387801
 20
190.2042726234
 10
-192.6735027121
 20
190.0010978343
 10
-195.5310434576
 20
190.1488528334
 10
-198.3516474083
 20
190.6454634643
 10
-201.0957194676
 20
191.4839584023
 10
-203.7247388788
 20
192.6525670166
 10
-206.2017999723
 20
194.1348846038
 10
-208.4921302401
 20
195.9101026743
 10
-210.5635784658
 20
197.9533010576
 10
-212.3870660569
 20
200.2357977273
 10
-213.9369952447
 20
202.7255514334
 10
-215.191608421
 20
205.3876114913
 10
-216.133293567
 20
208.1846084134
 10
-216.7488314873
 20
211.0772784938
 10
-217.0295813788
 20
214.0250149854
 10
-216.9716021285
 20
216.9864381295
 10
-216.5757076379
 20
219.9199760365
 10
-215.847455398
 20
222.7844482647
 10
-214.7970684737
 20
225.539643903
 10
-213.439291995
 20
228.1468860441
 10
-211.7931861675
 20
230.5695747234
 10
-209.8818587086
 20
232.7737007026
 10
-207.7321404661
 20
234.7283228843
 10
-205.374208772
 20
236.4060026577
 10
-202.8411638186
 20
237.7831890764
  0
SPLINE
  5
153
330
1F
100
AcDbEntity
  8
0
  6
Continuous
 62
     7
370
    15
100
AcDbSpline
210
0.0
220
0.0
230
1.0
 70
     8
 71
     3
 72
    95
 73
    91
 74
     0
 42
0.000000001
 43
0.00000001
 40
0.0
 40
0.0
 40
0.0
 40
0.0
 40
0.0625
 40
0.0625
 40
0.0625
 40
0.09375
 40
0.09375
 40
0.09375
 40
0.125
 40
0.125
 40
0.125
 40
0.15625
 40
0.15625
 40
0.15625
 40
0.1875
 40
0.1875
 40
0.1875
 40
0.21875
 40
0.21875
 40
0.21875
 40
0.25
 40
0.25
 40
0.25
 40
0.28125
 40
0.28125
 40
0.28125
 40
0.3125
 40
0.3125
 40
0.3125
 40
0.34375
 40
0.34375
 40
0.34375
 40
0.375
 40
0.375
 40
0.375
 40
0.40625
 40
0.40625
 40
0.40625
 40
0.4375
 40
0.4375
 40
0.4375
 40
0.46875
 40
0.46875
 40
0.46875
 40
0.5
 40
0.5
 40
0.5
 40
0.53125
 40
0.53125
 40
0.53125
 40
0.5625
 40
0.5625
 40
0.5625
 40
0.59375
 40
0.59375
 40
0.59375
 40
0.625
 40
0.625
 40
0.625
 40
0.65625
 40
0.65625
 40
0.65625
 40
0.6875
 40
0.6875
 40
0.6875
 40
0.71875
 40
0.71875
 40
0.71875
 40
0.75
 40
0.75
 40
0.75
 40
0.78125
 40
0.78125
 40
0.78125
 40
0.8125
 40
0.8125
 40
0.8125
 40
0.84375
 40
0.84375
 40
0.84375
 40
0.875
 40
0.875
 40
0.875
 40
0.90625
 40
0.90625
 40
0.90625
 40
0.9375
 40
0.9375
 40
0.9375
 40
1.0
 40
1.0
 40
1.0
 40
1.0
 10
-2000.0
 20
2026.000000000005
 30
0.0
 10
-2045.018099074903
 20
2026.000000000005
 30
0.0
 10
-2089.945318023755
 20
2023.977454306445
 30
0.0
 10
-2134.781656846557
 20
2019.932362919324
 30
0.0
 10
-2157.76183287818
 20
2017.859113528747
 30
0.0
 10
-2180.682309817821
 20
2015.25696155643
 30
0.0
 10
-2203.543087665479
 20
2012.125907002371
 30
0.0
 10
-2226.763822336354
 20
2008.945552093875
 30
0.0
 10
-2249.897652653933
 20
2005.22293396804
 30
0.0
 10
-2272.944578618218
 20
2000.958052624867
 30
0.0
 10
-2296.33138449319
 20
1996.630275800871
 30
0.0
 10
-2319.602439490341
 20
1991.748942113956
 30
0.0
 10
-2342.757743609669
 20
1986.314051564123
 30
0.0
 10
-2366.230332045533
 20
1980.804689717146
 30
0.0
 10
-2389.556858264995
 20
1974.732818289289
 30
0.0
 10
-2412.737322268054
 20
1968.098437280553
 30
0.0
 10
-2436.210161330626
 20
1961.380376862207
 30
0.0
 10
-2459.50540876558
 20
1954.09344718953
 30
0.0
 10
-2482.623064572919
 20
1946.237648262522
 30
0.0
 10
-2506.006118344821
 20
1938.291662291352
 30
0.0
 10
-2529.179118268118
 20
1929.773263401728
 30
0.0
 10
-2552.14206434281
 20
1920.682451593651
 30
0.0
 10
-2575.341698144934
 20
1911.497937366888
 30
0.0
 10
-2598.298183631421
 20
1901.740480714049
 30
0.0
 10
-2621.011520802269
 20
1891.410081635136
 30
0.0
 10
-2643.931504825082
 20
1880.985696171345
 30
0.0
 10
-2666.574961085661
 20
1869.991005707845
 30
0.0
 10
-2688.941889584005
 20
1858.426010244635
 30
0.0
 10
-2711.484533551479
 20
1846.770159722652
 30
0.0
 10
-2733.717359183053
 20
1834.549913181491
 30
0.0
 10
-2755.640366478727
 20
1821.765270621153
 30
0.0
 10
-2777.707748003122
 20
1808.896434643177
 30
0.0
 10
-2799.432502536117
 20
1795.472433378787
 30
0.0
 10
-2820.814630077714
 20
1781.493266827982
 30
0.0
 10
-2842.309890565495
 20
1767.44013643546
 30
0.0
 10
-2863.430598634324
 20
1752.844385880641
 30
0.0
 10
-2884.176754284202
 20
1737.706015163524
 30
0.0
 10
-2905.005424437998
 20
1722.507434006896
 30
0.0
 10
-2925.428902876213
 20
1706.782022739812
 30
0.0
 10
-2945.447189598845
 20
1690.52978136227
 30
0.0
 10
-2965.518514317774
 20
1674.234480040093
 30
0.0
 10
-2985.155685814255
 20
1657.43125236555
 30
0.0
 10
-3004.35870408829
 20
1640.120098338641
 30
0.0
 10
-3023.586929262099
 20
1622.78622077326
 30
0.0
 10
-3042.354085159276
 20
1604.966245253655
 30
0.0
 10
-3060.660171779821
 20
1586.660171779827
 30
0.0
 10
-3078.965750818715
 20
1568.354605887287
 30
0.0
 10
-3096.785726338319
 20
1549.58744999011
 30
0.0
 10
-3114.120098338634
 20
1530.358704088296
 30
0.0
 10
-3131.430786548878
 20
1511.156230241869
 30
0.0
 10
-3148.234014223422
 20
1491.519058745387
 30
0.0
 10
-3164.529781362264
 20
1471.447189598852
 30
0.0
 10
-3180.781587218384
 20
1451.429468569849
 30
0.0
 10
-3196.506998485469
 20
1431.005990131635
 30
0.0
 10
-3211.706015163518
 20
1410.176754284208
 30
0.0
 10
-3226.843981216387
 20
1389.43118423553
 30
0.0
 10
-3241.439731771206
 20
1368.3104761667
 30
0.0
 10
-3255.493266827977
 20
1346.814630077719
 30
0.0
 10
-3269.472061116774
 20
1325.433105121354
 30
0.0
 10
-3282.896062381164
 20
1303.708350588358
 30
0.0
 10
-3295.765270621147
 20
1281.640366478733
 30
0.0
 10
-3308.549574719858
 20
1259.71797510531
 30
0.0
 10
-3320.769821261018
 20
1237.485149473736
 30
0.0
 10
-3332.426010244629
 20
1214.941889584011
 30
0.0
 10
-3343.990701224924
 20
1192.57558832725
 30
0.0
 10
-3354.985391688424
 20
1169.932132066672
 30
0.0
 10
-3365.41008163513
 20
1147.011520802275
 30
0.0
 10
-3375.740210211334
 20
1124.298820221552
 30
0.0
 10
-3385.497666864173
 20
1101.342334735065
 30
0.0
 10
-3394.682451593646
 20
1078.142064342815
 30
0.0
 10
-3403.773027165357
 20
1055.179761197255
 30
0.0
 10
-3412.291426054981
 20
1032.006761273958
 30
0.0
 10
-3420.237648262516
 20
1008.623064572924
 30
0.0
 10
-3428.093245118123
 20
985.5060550708631
 30
0.0
 10
-3435.3801747908
 20
962.2108076359082
 30
0.0
 10
-3442.098437280547
 20
938.7373222680595
 30
0.0
 10
-3448.732642918483
 20
915.5575299918503
 30
0.0
 10
-3454.80451434634
 20
892.2310037723887
 30
0.0
 10
-3460.314051564117
 20
868.757743609675
 30
0.0
 10
-3465.748796370296
 20
845.6031348447568
 30
0.0
 10
-3470.630130057211
 20
822.3320798476061
 30
0.0
 10
-3474.958052624861
 20
798.9445786182227
 30
0.0
 10
-3479.222822801942
 20
775.8983442643456
 30
0.0
 10
-3482.945440927777
 20
752.764513946766
 30
0.0
 10
-3486.125907002367
 20
729.5430876654846
 30
0.0
 10
-3489.256883824388
 20
706.6829955419252
 30
0.0
 10
-3491.859035796706
 20
683.7625186022846
 30
0.0
 10
-3493.932362919319
 20
660.781656846563
 30
0.0
 10
-3497.97745430644
 20
615.9456611453621
 30
0.0
 10
-3500.0
 20
571.0184421965098
 30
0.0
 10
-3500.0
 20
526.0000000000058
 30
0.0
  0
SPLINE
  5
155
330
1F
100
AcDbEntity
  8
0
  6
Continuous
 62
     7
370
    15
100
AcDbSpline
210
0.0
220
0.0
230
1.0
 70
     8
 71
     3
 72
    95
 73
    91
 74
     0
 42
0.000000001
 43
0.00000001
 40
0.0
 40
0.0
 40
0.0
 40
0.0
 40
0.0625
 40
0.0625
 40
0.0625
 40
0.09375
 40
0.09375
 40
0.09375
 40
0.125
 40
0.125
 40
0.125
 40
0.15625
 40
0.15625
 40
0.15625
 40
0.1875
 40
0.1875
 40
0.1875
 40
0.21875
 40
0.21875
 40
0.21875
 40
0.25
 40
0.25
 40
0.25
 40
0.28125
 40
0.28125
 40
0.28125
 40
0.3125
 40
0.3125
 40
0.3125
 40
0.34375
 40
0.34375
 40
0.34375
 40
0.375
 40
0.375
 40
0.375
 40
0.40625
 40
0.40625
 40
0.40625
 40
0.4375
 40
0.4375
 40
0.4375
 40
0.46875
 40
0.46875
 40
0.46875
 40
0.5
 40
0.5
 40
0.5
 40
0.53125
 40
0.53125
 40
0.53125
 40
0.5625
 40
0.5625
 40
0.5625
 40
0.59375
 40
0.59375
 40
0.59375
 40
0.625
 40
0.625
 40
0.625
 40
0.65625
 40
0.65625
 40
0.65625
 40
0.6875
 40
0.6875
 40
0.6875
 40
0.71875
 40
0.71875
 40
0.71875
 40
0.75
 40
0.75
 40
0.75
 40
0.78125
 40
0.78125
 40
0.78125
 40
0.8125
 40
0.8125
 40
0.8125
 40
0.84375
 40
0.84375
 40
0.84375
 40
0.875
 40
0.875
 40
0.875
 40
0.90625
 40
0.90625
 40
0.90625
 40
0.9375
 40
0.9375
 40
0.9375
 40
1.0
 40
1.0
 40
1.0
 40
1.0
 10
3500.0
 20
526.0000000000059
 30
0.0
 10
3500.0
 20
571.0180992504229
 30
0.0
 10
3497.977454306439
 20
615.945318199275
 30
0.0
 10
3493.932362919318
 20
660.7816568465624
 30
0.0
 10
3491.859113503143
 20
683.7618330719605
 30
0.0
 10
3489.256961530826
 20
706.6823100116011
 30
0.0
 10
3486.125907002366
 20
729.5430876654839
 30
0.0
 10
3482.945552024065
 20
752.7638228390394
 30
0.0
 10
3479.22293389823
 20
775.8976531566192
 30
0.0
 10
3474.958052624861
 20
798.9445786182232
 30
0.0
 10
3470.630275719923
 20
822.3313848032735
 30
0.0
 10
3465.748942033009
 20
845.6024398004246
 30
0.0
 10
3460.314051564116
 20
868.7577436096761
 30
0.0
 10
3454.804689735274
 20
892.2303320035224
 30
0.0
 10
3448.732818307416
 20
915.5568582229841
 30
0.0
 10
3442.098437280546
 20
938.7373222680611
 30
0.0
 10
3435.380376724505
 20
962.2101617901251
 30
0.0
 10
3428.093447051828
 20
985.50540922508
 30
0.0
 10
3420.237648262516
 20
1008.623064572926
 30
0.0
 10
3412.291662162247
 20
1032.006118669821
 30
0.0
 10
3403.773263272622
 20
1055.179118593117
 30
0.0
 10
3394.682451593644
 20
1078.142064342816
 30
0.0
 10
3385.49793745125
 20
1101.341697932945
 30
0.0
 10
3375.740480798411
 20
1124.298183419432
 30
0.0
 10
3365.41008163513
 20
1147.011520802276
 30
0.0
 10
3354.985696340795
 20
1169.931504479247
 30
0.0
 10
3343.991005877294
 20
1192.574960739826
 30
0.0
 10
3332.426010244629
 20
1214.941889584011
 30
0.0
 10
3320.770159982869
 20
1237.48453306646
 30
0.0
 10
3308.549913441709
 20
1259.717358698033
 30
0.0
 10
3295.765270621147
 20
1281.640366478733
 30
0.0
 10
3282.896434674843
 20
1303.70774798787
 30
0.0
 10
3269.472433410452
 20
1325.432502520866
 30
0.0
 10
3255.493266827977
 20
1346.814630077719
 30
0.0
 10
3241.440136566781
 20
1368.309890331264
 30
0.0
 10
3226.844386011961
 20
1389.430598400094
 30
0.0
 10
3211.706015163518
 20
1410.176754284208
 30
0.0
 10
3196.507434515395
 20
1431.005423795608
 30
0.0
 10
3180.782023248311
 20
1451.428902233823
 30
0.0
 10
3164.529781362265
 20
1471.447189598851
 30
0.0
 10
3148.234479962571
 20
1491.518514429359
 30
0.0
 10
3131.431252288028
 20
1511.155685925841
 30
0.0
 10
3114.120098338635
 20
1530.358704088296
 30
0.0
 10
3096.786220392242
 20
1549.586929659129
 30
0.0
 10
3078.966244872638
 20
1568.354085556306
 30
0.0
 10
3060.660171779821
 20
1586.660171779827
 30
0.0
 10
3042.354605704187
 20
1604.965750985801
 30
0.0
 10
3023.58744980701
 20
1622.785726505406
 30
0.0
 10
3004.358704088289
 20
1640.120098338641
 30
0.0
 10
2985.156230375167
 20
1657.43078642669
 30
0.0
 10
2965.519058878686
 20
1674.234014101233
 30
0.0
 10
2945.447189598846
 20
1690.529781362271
 30
0.0
 10
2925.429468753441
 20
1706.781587083264
 30
0.0
 10
2905.005990315226
 20
1722.506998350349
 30
0.0
 10
2884.176754284201
 20
1737.706015163525
 30
0.0
 10
2863.431184535239
 20
1752.84398099884
 30
0.0
 10
2842.31047646641
 20
1767.439731553659
 30
0.0
 10
2820.814630077713
 20
1781.493266827983
 30
0.0
 10
2799.433106082651
 20
1795.47206050979
 30
0.0
 10
2777.708351549656
 20
1808.89606177418
 30
0.0
 10
2755.640366478728
 20
1821.765270621153
 30
0.0
 10
2733.717976065088
 20
1834.549574206244
 30
0.0
 10
2711.485150433514
 20
1846.769820747404
 30
0.0
 10
2688.941889584004
 20
1858.426010244635
 30
0.0
 10
2666.575589293612
 20
1869.990700742481
 30
0.0
 10
2643.932133033034
 20
1880.985391205981
 30
0.0
 10
2621.01152080227
 20
1891.410081635136
 30
0.0
 10
2598.298820827845
 20
1901.740209978124
 30
0.0
 10
2575.342335341358
 20
1911.497666630962
 30
0.0
 10
2552.142064342809
 20
1920.682451593651
 30
0.0
 10
2529.179761886607
 20
1929.773026885708
 30
0.0
 10
2506.006761963311
 20
1938.291425775332
 30
0.0
 10
2482.623064572919
 20
1946.237648262522
 30
0.0
 10
2459.506055593946
 20
1954.093244985254
 30
0.0
 10
2436.210808158991
 20
1961.380174657931
 30
0.0
 10
2412.737322268054
 20
1968.098437280553
 30
0.0
 10
2389.55752945142
 20
1974.732643056536
 30
0.0
 10
2366.231003231958
 20
1980.804514484393
 30
0.0
 10
2342.757743609669
 20
1986.314051564123
 30
0.0
 10
2319.603134629415
 20
1991.748796409795
 30
0.0
 10
2296.332079632265
 20
1996.63013009671
 30
0.0
 10
2272.944578618217
 20
2000.958052624867
 30
0.0
 10
2249.898344105102
 20
2005.222822831765
 30
0.0
 10
2226.764513787522
 20
2008.9454409576
 30
0.0
 10
2203.543087665477
 20
2012.125907002371
 30
0.0
 10
2180.68299493429
 20
2015.256883899731
 30
0.0
 10
2157.76251799465
 20
2017.859035872048
 30
0.0
 10
2134.781656846556
 20
2019.932362919324
 30
0.0
 10
2089.945660701643
 20
2023.977454306445
 30
0.0
 10
2045.018441752791
 20
2026.000000000006
 30
0.0
 10
1999.999999999999
 20
2026.000000000006
 30
0.0
  0
SPLINE
  5
157
330
1F
100
AcDbEntity
  8
0
  6
Continuous
 62
     7
370
    15
100
AcDbSpline
210
0.0
220
0.0
230
1.0
 70
     8
 71
     3
 72
    95
 73
    91
 74
     0
 42
0.000000001
 43
0.00000001
 40
0.0
 40
0.0
 40
0.0
 40
0.0
 40
0.0625
 40
0.0625
 40
0.0625
 40
0.09375
 40
0.09375
 40
0.09375
 40
0.125
 40
0.125
 40
0.125
 40
0.15625
 40
0.15625
 40
0.15625
 40
0.1875
 40
0.1875
 40
0.1875
 40
0.21875
 40
0.21875
 40
0.21875
 40
0.25
 40
0.25
 40
0.25
 40
0.28125
 40
0.28125
 40
0.28125
 40
0.3125
 40
0.3125
 40
0.3125
 40
0.34375
 40
0.34375
 40
0.34375
 40
0.375
 40
0.375
 40
0.375
 40
0.40625
 40
0.40625
 40
0.40625
 40
0.4375
 40
0.4375
 40
0.4375
 40
0.46875
 40
0.46875
 40
0.46875
 40
0.5
 40
0.5
 40
0.5
 40
0.53125
 40
0.53125
 40
0.53125
 40
0.5625
 40
0.5625
 40
0.5625
 40
0.59375
 40
0.59375
 40
0.59375
 40
0.625
 40
0.625
 40
0.625
 40
0.65625
 40
0.65625
 40
0.65625
 40
0.6875
 40
0.6875
 40
0.6875
 40
0.71875
 40
0.71875
 40
0.71875
 40
0.75
 40
0.75
 40
0.75
 40
0.78125
 40
0.78125
 40
0.78125
 40
0.8125
 40
0.8125
 40
0.8125
 40
0.84375
 40
0.84375
 40
0.84375
 40
0.875
 40
0.875
 40
0.875
 40
0.90625
 40
0.90625
 40
0.90625
 40
0.9375
 40
0.9375
 40
0.9375
 40
1.0
 40
1.0
 40
1.0
 40
1.0
 10
1999.999999999999
 20
-1596.000000000006
 30
0.0
 10
2045.01809927156
 20
-1596.000000000006
 30
0.0
 10
2089.945318220412
 20
-1593.977454306445
 30
0.0
 10
2134.781656846556
 20
-1589.932362919324
 30
0.0
 10
2157.761833196689
 20
-1587.859113490919
 30
0.0
 10
2180.682310136329
 20
-1585.256961518601
 30
0.0
 10
2203.543087665478
 20
-1582.125907002371
 30
0.0
 10
2226.763822534483
 20
-1578.945552060854
 30
0.0
 10
2249.897652852062
 20
-1575.222933935019
 30
0.0
 10
2272.944578618216
 20
-1570.958052624868
 30
0.0
 10
2296.331384474538
 20
-1566.630275800627
 30
0.0
 10
2319.602439471689
 20
-1561.748942113712
 30
0.0
 10
2342.757743609669
 20
-1556.314051564124
 30
0.0
 10
2366.230331748515
 20
-1550.804689791546
 30
0.0
 10
2389.556857967977
 20
-1544.732818363689
 30
0.0
 10
2412.737322268054
 20
-1538.098437280554
 30
0.0
 10
2436.210161296522
 20
-1531.380376882711
 30
0.0
 10
2459.505408731477
 20
-1524.093447210034
 30
0.0
 10
2482.623064572918
 20
-1516.237648262523
 30
0.0
 10
2506.006118580608
 20
-1508.291662202211
 30
0.0
 10
2529.179118503905
 20
-1499.773263312587
 30
0.0
 10
2552.142064342809
 20
-1490.682451593652
 30
0.0
 10
2575.341698463096
 20
-1481.497937236683
 30
0.0
 10
2598.298183949582
 20
-1471.740480583844
 30
0.0
 10
2621.011520802268
 20
-1461.410081635136
 30
0.0
 10
2643.931504883501
 20
-1450.985696130143
 30
0.0
 10
2666.574961144079
 20
-1439.991005666642
 30
0.0
 10
2688.941889584005
 20
-1428.426010244635
 30
0.0
 10
2711.484533209472
 20
-1416.770159910572
 30
0.0
 10
2733.717358841045
 20
-1404.549913369412
 30
0.0
 10
2755.640366478727
 20
-1391.765270621154
 30
0.0
 10
2777.707747763449
 20
-1378.896434794547
 30
0.0
 10
2799.432502296444
 20
-1365.472433530156
 30
0.0
 10
2820.814630077713
 20
-1351.493266827983
 30
0.0
 10
2842.309890187794
 20
-1337.440136687744
 30
0.0
 10
2863.430598256623
 20
-1322.844386132925
 30
0.0
 10
2884.176754284203
 20
-1307.706015163524
 30
0.0
 10
2905.005424282782
 20
-1292.507434143572
 30
0.0
 10
2925.428902720996
 20
-1276.782022876488
 30
0.0
 10
2945.447189598845
 20
-1260.52978136227
 30
0.0
 10
2965.518514437063
 20
-1244.234479932557
 30
0.0
 10
2985.155685933544
 20
-1227.431252258014
 30
0.0
 10
3004.35870408829
 20
-1210.120098338641
 30
0.0
 10
3023.586929262092
 20
-1192.786220773265
 30
0.0
 10
3042.354085159269
 20
-1174.966245253661
 30
0.0
 10
3060.66017177982
 20
-1156.660171779827
 30
0.0
 10
3078.965750552984
 20
-1138.354606153017
 30
0.0
 10
3096.785726072588
 20
-1119.58745025584
 30
0.0
 10
3114.120098338634
 20
-1100.358704088297
 30
0.0
 10
3131.430786248124
 20
-1081.156230604493
 30
0.0
 10
3148.234013922668
 20
-1061.519059108011
 30
0.0
 10
3164.529781362264
 20
-1041.447189598852
 30
0.0
 10
3180.781586912221
 20
-1021.429468954757
 30
0.0
 10
3196.506998179306
 20
-1001.005990516542
 30
0.0
 10
3211.706015163517
 20
-980.176754284209
 30
0.0
 10
3226.843981102303
 20
-959.4311844264003
 30
0.0
 10
3241.439731657123
 20
-938.3104763575707
 30
0.0
 10
3255.493266827977
 20
-916.8146300777198
 30
0.0
 10
3269.472060936131
 20
-895.4331053813736
 30
0.0
 10
3282.896062200521
 20
-873.708350848378
 30
0.0
 10
3295.765270621147
 20
-851.6403664787329
 30
0.0
 10
3308.549574305347
 20
-829.7179758655271
 30
0.0
 10
3320.769820846508
 20
-807.485150233953
 30
0.0
 10
3332.426010244629
 20
-784.9418895840114
 30
0.0
 10
3343.990700802255
 20
-762.5755891858299
 30
0.0
 10
3354.985391265755
 20
-739.9321329252513
 30
0.0
 10
3365.41008163513
 20
-717.0115208022754
 30
0.0
 10
3375.740209988947
 20
-694.2988207806048
 30
0.0
 10
3385.497666641786
 20
-671.342335294118
 30
0.0
 10
3394.682451593645
 20
-648.1420643428154
 30
0.0
 10
3403.773027013819
 20
-625.1797615826861
 30
0.0
 10
3412.291425903442
 20
-602.0067616593892
 30
0.0
 10
3420.237648262516
 20
-578.6230645729247
 30
0.0
 10
3428.09324514092
 20
-555.5060550635931
 30
0.0
 10
3435.380174813597
 20
-532.2108076286381
 30
0.0
 10
3442.098437280547
 20
-508.7373222680598
 30
0.0
 10
3448.732643011739
 20
-485.5575295945358
 30
0.0
 10
3454.804514439596
 20
-462.2310033750743
 30
0.0
 10
3460.314051564117
 20
-438.7577436096752
 30
0.0
 10
3465.748796417491
 20
-415.6031346436846
 30
0.0
 10
3470.630130104406
 20
-392.3320796465337
 30
0.0
 10
3474.958052624861
 20
-368.944578618223
 30
0.0
 10
3479.222822829965
 20
-345.8983440597349
 30
0.0
 10
3482.945440955799
 20
-322.7645137421555
 30
0.0
 10
3486.125907002366
 20
-299.5430876654848
 30
0.0
 10
3489.256883853346
 20
-276.682995330485
 30
0.0
 10
3491.859035825664
 20
-253.7625183908445
 30
0.0
 10
3493.932362919318
 20
-230.7816568465633
 30
0.0
 10
3497.977454306439
 20
-185.9456609316406
 30
0.0
 10
3500.0
 20
-141.0184419827881
 30
0.0
 10
3500.0
 20
-96.00000000000608
 30
0.0
  0
SPLINE
  5
158
330
1F
100
AcDbEntity
  8
0
  6
Continuous
 62
     7
370
    15
100
AcDbSpline
210
0.0
220
0.0
230
1.0
 70
     8
 71
     3
 72
    95
 73
    91
 74
     0
 42
0.000000001
 43
0.00000001
 40
0.0
 40
0.0
 40
0.0
 40
0.0
 40
0.0625
 40
0.0625
 40
0.0625
 40
0.09375
 40
0.09375
 40
0.09375
 40
0.125
 40
0.125
 40
0.125
 40
0.15625
 40
0.15625
 40
0.15625
 40
0.1875
 40
0.1875
 40
0.1875
 40
0.21875
 40
0.21875
 40
0.21875
 40
0.25
 40
0.25
 40
0.25
 40
0.28125
 40
0.28125
 40
0.28125
 40
0.3125
 40
0.3125
 40
0.3125
 40
0.34375
 40
0.34375
 40
0.34375
 40
0.375
 40
0.375
 40
0.375
 40
0.40625
 40
0.40625
 40
0.40625
 40
0.4375
 40
0.4375
 40
0.4375
 40
0.46875
 40
0.46875
 40
0.46875
 40
0.5
 40
0.5
 40
0.5
 40
0.53125
 40
0.53125
 40
0.53125
 40
0.5625
 40
0.5625
 40
0.5625
 40
0.59375
 40
0.59375
 40
0.59375
 40
0.625
 40
0.625
 40
0.625
 40
0.65625
 40
0.65625
 40
0.65625
 40
0.6875
 40
0.6875
 40
0.6875
 40
0.71875
 40
0.71875
 40
0.71875
 40
0.75
 40
0.75
 40
0.75
 40
0.78125
 40
0.78125
 40
0.78125
 40
0.8125
 40
0.8125
 40
0.8125
 40
0.84375
 40
0.84375
 40
0.84375
 40
0.875
 40
0.875
 40
0.875
 40
0.90625
 40
0.90625
 40
0.90625
 40
0.9375
 40
0.9375
 40
0.9375
 40
1.0
 40
1.0
 40
1.0
 40
1.0
 10
-3500.0
 20
-96.00000000000635
 30
0.0
 10
-3500.0
 20
-141.0180990554002
 30
0.0
 10
-3497.97745430644
 20
-185.9453180042525
 30
0.0
 10
-3493.932362919318
 20
-230.7816568465632
 30
0.0
 10
-3491.859113573902
 20
-253.7618323876212
 30
0.0
 10
-3489.256961601585
 20
-276.6823093272619
 30
0.0
 10
-3486.125907002367
 20
-299.543087665485
 30
0.0
 10
-3482.945552084228
 20
-322.7638225701413
 30
0.0
 10
-3479.222933958392
 20
-345.8976528877209
 30
0.0
 10
-3474.958052624861
 20
-368.9445786182235
 30
0.0
 10
-3470.630275648242
 20
-392.3313851335963
 30
0.0
 10
-3465.748941961328
 20
-415.6024401307467
 30
0.0
 10
-3460.314051564117
 20
-438.7577436096752
 30
0.0
 10
-3454.804689830334
 20
-462.2303315732568
 30
0.0
 10
-3448.732818402477
 20
-485.5568577927185
 30
0.0
 10
-3442.098437280548
 20
-508.7373222680602
 30
0.0
 10
-3435.380377016594
 20
-532.2101608689427
 30
0.0
 10
-3428.093447343917
 20
-555.5054083038976
 30
0.0
 10
-3420.237648262518
 20
-578.623064572925
 30
0.0
 10
-3412.291662360822
 20
-602.0061181478204
 30
0.0
 10
-3403.773263471197
 20
-625.1791180711172
 30
0.0
 10
-3394.682451593646
 20
-648.142064342815
 30
0.0
 10
-3385.497937456211
 20
-671.3416979410408
 30
0.0
 10
-3375.740480803372
 20
-694.2981834275276
 30
0.0
 10
-3365.41008163513
 20
-717.011520802276
 30
0.0
 10
-3354.985696603002
 20
-739.9315038835588
 30
0.0
 10
-3343.991006139502
 20
-762.5749601441373
 30
0.0
 10
-3332.426010244631
 20
-784.9418895840114
 30
0.0
 10
-3320.770160133235
 20
-807.4845328649265
 30
0.0
 10
-3308.549913592074
 20
-829.7173584965001
 30
0.0
 10
-3295.765270621147
 20
-851.6403664787329
 30
0.0
 10
-3282.896434233449
 20
-873.7077486880848
 30
0.0
 10
-3269.472432969059
 20
-895.4325032210804
 30
0.0
 10
-3255.493266827977
 20
-916.8146300777194
 30
0.0
 10
-3241.44013647033
 20
-938.3098904535872
 30
0.0
 10
-3226.844385915511
 20
-959.4305985224167
 30
0.0
 10
-3211.706015163519
 20
-980.1767542842082
 30
0.0
 10
-3196.507434680455
 20
-1001.005423579303
 30
0.0
 10
-3180.782023413371
 20
-1021.428902017518
 30
0.0
 10
-3164.529781362266
 20
-1041.447189598852
 30
0.0
 10
-3148.234480250195
 20
-1061.518514088121
 30
0.0
 10
-3131.431252575651
 20
-1081.155685584603
 30
0.0
 10
-3114.120098338634
 20
-1100.358704088297
 30
0.0
 10
-3096.78622069317
 20
-1119.586929347527
 30
0.0
 10
-3078.966245173566
 20
-1138.354085244704
 30
0.0
 10
-3060.660171779821
 20
-1156.660171779827
 30
0.0
 10
-3042.354606016307
 20
-1174.965750684357
 30
0.0
 10
-3023.58745011913
 20
-1192.785726203962
 30
0.0
 10
-3004.358704088291
 20
-1210.120098338641
 30
0.0
 10
-2985.156230503252
 20
-1227.430786331273
 30
0.0
 10
-2965.51905900677
 20
-1244.234014005817
 30
0.0
 10
-2945.447189598846
 20
-1260.529781362271
 30
0.0
 10
-2925.429468981939
 20
-1276.781586889206
 30
0.0
 10
-2905.005990543725
 20
-1292.50699815629
 30
0.0
 10
-2884.176754284202
 20
-1307.706015163525
 30
0.0
 10
-2863.431184487238
 20
-1322.843981061083
 30
0.0
 10
-2842.310476418408
 20
-1337.439731615903
 30
0.0
 10
-2820.814630077713
 20
-1351.493266827983
 30
0.0
 10
-2799.43310549676
 20
-1365.472060862138
 30
0.0
 10
-2777.708350963765
 20
-1378.896062126528
 30
0.0
 10
-2755.640366478728
 20
-1391.765270621153
 30
0.0
 10
-2733.717976355059
 20
-1404.549574026537
 30
0.0
 10
-2711.485150723485
 20
-1416.769820567698
 30
0.0
 10
-2688.941889584006
 20
-1428.426010244635
 30
0.0
 10
-2666.575589414844
 20
-1439.990700709339
 30
0.0
 10
-2643.932133154266
 20
-1450.98539117284
 30
0.0
 10
-2621.011520802269
 20
-1461.410081635136
 30
0.0
 10
-2598.29882057916
 20
-1471.740210069433
 30
0.0
 10
-2575.342335092673
 20
-1481.497666722271
 30
0.0
 10
-2552.14206434281
 20
-1490.682451593652
 30
0.0
 10
-2529.17976195968
 20
-1499.77302686385
 30
0.0
 10
-2506.006762036383
 20
-1508.291425753474
 30
0.0
 10
-2482.623064572919
 20
-1516.237648262523
 30
0.0
 10
-2459.50605540853
 20
-1524.093245045323
 30
0.0
 10
-2436.210807973575
 20
-1531.380174718
 30
0.0
 10
-2412.737322268054
 20
-1538.098437280554
 30
0.0
 10
-2389.557529427822
 20
-1544.732643056377
 30
0.0
 10
-2366.231003208361
 20
-1550.804514484234
 30
0.0
 10
-2342.757743609669
 20
-1556.314051564123
 30
0.0
 10
-2319.603134802722
 20
-1561.748796374739
 30
0.0
 10
-2296.332079805572
 20
-1566.630130061654
 30
0.0
 10
-2272.944578618218
 20
-1570.958052624868
 30
0.0
 10
-2249.898344248904
 20
-1575.222822808096
 30
0.0
 10
-2226.764513931325
 20
-1578.945440933931
 30
0.0
 10
-2203.54308766548
 20
-1582.125907002371
 30
0.0
 10
-2180.682994914301
 20
-1585.256883906381
 30
0.0
 10
-2157.76251797466
 20
-1587.859035878698
 30
0.0
 10
-2134.781656846557
 20
-1589.932362919324
 30
0.0
 10
-2089.945660596841
 20
-1593.977454306445
 30
0.0
 10
-2045.018441647989
 20
-1596.000000000006
 30
0.0
 10
-2000.0
 20
-1596.000000000006
 30
0.0
  0
LWPOLYLINE
  5
15C
330
1F
100
AcDbEntity
  8
0
  6
Continuous
 62
     7
370
    15
100
AcDbPolyline
 90
       14
 70
   128
 43
0.0
 10
1139.6611257429
 20
178.98458428
 10
1140.077833469
 20
179.7246615217
 10
1140.7894041436
 20
181.4387786151
 10
1141.2251828573
 20
183.265652436
 10
1141.3719286946
 20
185.1497743478
 10
1141.2251828573
 20
187.0338962596
 10
1140.7894041436
 20
188.8607700805
 10
1140.077833469
 20
190.5748871739
 10
1139.1120915486
 20
192.1241649593
 10
1137.9215219618
 20
193.4615294153
 10
1136.5422995631
 20
194.5463453994
 10
1135.0163313272
 20
195.345651327
 10
1133.3899830266
 20
195.835160692
 10
1131.7126704317
 20
196.0
  0
LWPOLYLINE
  5
15D
330
1F
100
AcDbEntity
  8
0
  6
Continuous
 62
     7
370
    15
100
AcDbPolyline
 90
       14
 70
   128
 43
0.0
 10
1131.7126704317
 20
234.0
 10
1133.3899830266
 20
234.164839308
 10
1135.0163313272
 20
234.654348673
 10
1136.5422995631
 20
235.4536546006
 10
1137.9215219618
 20
236.5384705847
 10
1139.1120915486
 20
237.8758350407
 10
1140.077833469
 20
239.4251128261
 10
1140.7894041436
 20
241.1392299195
 10
1141.2251828573
 20
242.9661037404
 10
1141.3719286946
 20
244.8502256522
 10
1141.2251828573
 20
246.734347564
 10
1140.7894041436
 20
248.5612213849
 10
1140.077833469
 20
250.2753384783
 10
1139.6611257429
 20
251.01541572
  0
LWPOLYLINE
  5
16F
330
1F
100
AcDbEntity
  8
0
  6
Continuous
 62
     7
370
    15
100
AcDbPolyline
 90
       14
 70
   128
 43
0.0
 10
1506.7129397328
 20
178.98458428
 10
1507.1296474589
 20
179.7246615217
 10
1507.8412181334
 20
181.4387786151
 10
1508.2769968471
 20
183.265652436
 10
1508.4237426844
 20
185.1497743478
 10
1508.2769968471
 20
187.0338962596
 10
1507.8412181334
 20
188.8607700805
 10
1507.1296474589
 20
190.5748871739
 10
1506.1639055384
 20
192.1241649593
 10
1504.9733359517
 20
193.4615294153
 10
1503.594113553
 20
194.5463453994
 10
1502.068145317
 20
195.345651327
 10
1500.4417970165
 20
195.835160692
 10
1498.7644844215
 20
196.0
  0
LWPOLYLINE
  5
170
330
1F
100
AcDbEntity
  8
0
  6
Continuous
 62
     7
370
    15
100
AcDbPolyline
 90
       14
 70
   128
 43
0.0
 10
1498.7644844215
 20
234.0
 10
1500.4417970165
 20
234.164839308
 10
1502.068145317
 20
234.654348673
 10
1503.594113553
 20
235.4536546006
 10
1504.9733359517
 20
236.5384705847
 10
1506.1639055384
 20
237.8758350407
 10
1507.1296474589
 20
239.4251128261
 10
1507.8412181334
 20
241.1392299195
 10
1508.2769968471
 20
242.9661037404
 10
1508.4237426844
 20
244.8502256522
 10
1508.2769968471
 20
246.734347564
 10
1507.8412181334
 20
248.5612213849
 10
1507.1296474589
 20
250.2753384783
 10
1506.7129397328
 20
251.01541572
  0
LWPOLYLINE
  5
181
330
1F
100
AcDbEntity
  8
0
  6
Continuous
 62
     7
370
    15
100
AcDbPolyline
 90
       14
 70
   128
 43
0.0
 10
-1225.1463457137
 20
234.0
 10
-1223.4690331187
 20
234.164839308
 10
-1221.8426848182
 20
234.654348673
 10
-1220.3167165822
 20
235.4536546006
 10
-1218.9374941835
 20
236.5384705847
 10
-1217.7469245967
 20
237.8758350407
 10
-1216.7811826763
 20
239.4251128261
 10
-1216.0696120018
 20
241.1392299195
 10
-1215.633833288
 20
242.9661037404
 10
-1215.4870874508
 20
244.8502256522
 10
-1215.633833288
 20
246.734347564
 10
-1216.0696120018
 20
248.5612213849
 10
-1216.7811826763
 20
250.2753384783
 10
-1217.1978904024
 20
251.01541572
  0
LWPOLYLINE
  5
184
330
1F
100
AcDbEntity
  8
0
  6
Continuous
 62
     7
370
    15
100
AcDbPolyline
 90
       14
 70
   128
 43
0.0
 10
-1217.1978904024
 20
178.98458428
 10
-1216.7811826763
 20
179.7246615217
 10
-1216.0696120018
 20
181.4387786151
 10
-1215.633833288
 20
183.265652436
 10
-1215.4870874508
 20
185.1497743478
 10
-1215.633833288
 20
187.0338962596
 10
-1216.0696120018
 20
188.8607700805
 10
-1216.7811826763
 20
190.5748871739
 10
-1217.7469245967
 20
192.1241649593
 10
-1218.9374941835
 20
193.4615294153
 10
-1220.3167165822
 20
194.5463453994
 10
-1221.8426848182
 20
195.345651327
 10
-1223.4690331187
 20
195.835160692
 10
-1225.1463457137
 20
196.0
  0
LWPOLYLINE
  5
194
330
1F
100
AcDbEntity
  8
0
  6
Continuous
 62
     7
370
    15
100
AcDbPolyline
 90
       14
 70
   128
 43
0.0
 10
-1592.1981597035
 20
234.0
 10
-1590.5208471086
 20
234.164839308
 10
-1588.894498808
 20
234.654348673
 10
-1587.3685305721
 20
235.4536546006
 10
-1585.9893081734
 20
236.5384705847
 10
-1584.7987385866
 20
237.8758350407
 10
-1583.8329966661
 20
239.4251128261
 10
-1583.1214259916
 20
241.1392299195
 10
-1582.6856472779
 20
242.9661037404
 10
-1582.5389014406
 20
244.8502256522
 10
-1582.6856472779
 20
246.734347564
 10
-1583.1214259916
 20
248.5612213849
 10
-1583.8329966661
 20
250.2753384783
 10
-1584.2497043922
 20
251.01541572
  0
LWPOLYLINE
  5
197
330
1F
100
AcDbEntity
  8
0
  6
Continuous
 62
     7
370
    15
100
AcDbPolyline
 90
       14
 70
   128
 43
0.0
 10
-1584.2497043922
 20
178.98458428
 10
-1583.8329966661
 20
179.7246615217
 10
-1583.1214259916
 20
181.4387786151
 10
-1582.6856472779
 20
183.265652436
 10
-1582.5389014406
 20
185.1497743478
 10
-1582.6856472779
 20
187.0338962596
 10
-1583.1214259916
 20
188.8607700805
 10
-1583.8329966661
 20
190.5748871739
 10
-1584.7987385866
 20
192.1241649593
 10
-1585.9893081734
 20
193.4615294153
 10
-1587.3685305721
 20
194.5463453994
 10
-1588.894498808
 20
195.345651327
 10
-1590.5208471086
 20
195.835160692
 10
-1592.1981597035
 20
196.0
  0
SPLINE
  5
1A7
330
1F
100
AcDbEntity
  8
0
  6
Continuous
 62
     7
370
    15
100
AcDbSpline
210
0.0
220
0.0
230
1.0
 70
     8
 71
     3
 72
    26
 73
    22
 74
     0
 42
0.000000001
 43
0.00000001
 40
0.0
 40
0.0
 40
0.0
 40
0.0
 40
0.1249999999999742
 40
0.1249999999999742
 40
0.1874999999999648
 40
0.1874999999999648
 40
0.2499999999999554
 40
0.2499999999999554
 40
0.374999999999948
 40
0.374999999999948
 40
0.4999999999999407
 40
0.4999999999999407
 40
0.6249999999999334
 40
0.6249999999999334
 40
0.6874999999999447
 40
0.6874999999999447
 40
0.749999999999956
 40
0.749999999999956
 40
0.874999999999978
 40
0.874999999999978
 40
1.0
 40
1.0
 40
1.0
 40
1.0
 10
-31.2568073771584
 20
-86.00467293630265
 30
0.0
 10
-31.63631696553908
 20
-85.8906178869775
 30
0.0
 10
-32.00887663093842
 20
-85.77638832190304
 30
0.0
 10
-32.55775434006568
 20
-85.60496788962507
 30
0.0
 10
-32.73904201238634
 20
-85.54781814726186
 30
0.0
 10
-33.09821780367895
 20
-85.43357043613759
 30
0.0
 10
-33.27659347524934
 20
-85.37630930837193
 30
0.0
 10
-33.79507257521772
 20
-85.2084544394709
 30
0.0
 10
-34.12241715449587
 20
-85.1005676017712
 30
0.0
 10
-34.74111760354381
 20
-84.89373712685122
 30
0.0
 10
-35.03362019197889
 20
-84.79436815126756
 30
0.0
 10
-35.55733447922328
 20
-84.6143880365069
 30
0.0
 10
-35.79203365669218
 20
-84.53262168492049
 30
0.0
 10
-36.10267660301556
 20
-84.4234777178276
 30
0.0
 10
-36.19908028981563
 20
-84.3894290092454
 30
0.0
 10
-36.37375751058242
 20
-84.32750535036593
 30
0.0
 10
-36.45263713025927
 20
-84.29941769737664
 30
0.0
 10
-36.66434227596923
 20
-84.22381554882958
 30
0.0
 10
-36.77287948471973
 20
-84.1847412092283
 30
0.0
 10
-36.91862923678818
 20
-84.13217327008788
 30
0.0
 10
-36.95518115130634
 20
-84.11892374126457
 30
0.0
 10
-36.95518115130633
 20
-84.11892374126457
 30
0.0
  0
SPLINE
  5
1A9
330
1F
100
AcDbEntity
  8
0
  6
Continuous
 62
     7
370
    15
100
AcDbSpline
210
0.0
220
0.0
230
1.0
 70
     8
 71
     3
 72
    26
 73
    22
 74
     0
 42
0.000000001
 43
0.00000001
 40
0.0
 40
0.0
 40
0.0
 40
0.0
 40
0.1249999999999816
 40
0.1249999999999816
 40
0.1874999999999759
 40
0.1874999999999759
 40
0.2499999999999701
 40
0.2499999999999701
 40
0.3749999999999599
 40
0.3749999999999599
 40
0.4999999999999496
 40
0.4999999999999496
 40
0.6249999999999393
 40
0.6249999999999393
 40
0.687499999999949
 40
0.687499999999949
 40
0.7499999999999587
 40
0.7499999999999587
 40
0.8749999999999793
 40
0.8749999999999793
 40
1.0
 40
1.0
 40
1.0
 40
1.0
 10
-31.05232104254152
 20
-85.4396121312866
 30
0.0
 10
-31.43186690407936
 20
-85.32567338287089
 30
0.0
 10
-31.80445954566741
 20
-85.21154640150152
 30
0.0
 10
-32.35338204205811
 20
-85.04026111106283
 30
0.0
 10
-32.53468386368809
 20
-84.98315328830009
 30
0.0
 10
-32.89388643614736
 20
-84.86898342278626
 30
0.0
 10
-33.07227470469532
 20
-84.81175830489057
 30
0.0
 10
-33.59078839723693
 20
-84.64400096642815
 30
0.0
 10
-33.91815225019335
 20
-84.53616601766312
 30
0.0
 10
-34.53688505887437
 20
-84.32941885938361
 30
0.0
 10
-34.82940053288926
 20
-84.23008132108045
 30
0.0
 10
-35.35313452938668
 20
-84.05014721862109
 30
0.0
 10
-35.58784086566997
 20
-83.96839591819472
 30
0.0
 10
-35.89849188769522
 20
-83.85926725679715
 30
0.0
 10
-35.99489753931555
 20
-83.82522250358492
 30
0.0
 10
-36.16957805642215
 20
-83.76330483033057
 30
0.0
 10
-36.24845899207622
 20
-83.73521924952976
 30
0.0
 10
-36.46016737515281
 20
-83.65962155731327
 30
0.0
 10
-36.56870594472306
 20
-83.62054785910512
 30
0.0
 10
-36.71445675804838
 20
-83.56798051855557
 30
0.0
 10
-36.75100887975216
 20
-83.55473079241781
 30
0.0
 10
-36.75100887975214
 20
-83.55473079241781
 30
0.0
  0
SPLINE
  5
1AB
330
1F
100
AcDbEntity
  8
0
  6
Continuous
 62
     7
370
    15
100
AcDbSpline
210
0.0
220
0.0
230
1.0
 70
     8
 71
     3
 72
    26
 73
    22
 74
     0
 42
0.000000001
 43
0.00000001
 40
0.0
 40
0.0
 40
0.0
 40
0.0
 40
0.1249999999999783
 40
0.1249999999999783
 40
0.1874999999999674
 40
0.1874999999999674
 40
0.2499999999999565
 40
0.2499999999999565
 40
0.3749999999999676
 40
0.3749999999999676
 40
0.4999999999999787
 40
0.4999999999999787
 40
0.6249999999999898
 40
0.6249999999999898
 40
0.6874999999999956
 40
0.6874999999999956
 40
0.7500000000000013
 40
0.7500000000000013
 40
0.8750000000000007
 40
0.8750000000000007
 40
1.0
 40
1.0
 40
1.0
 40
1.0
 10
36.9551811513064
 20
-84.11892374126451
 30
0.0
 10
36.95518115130641
 20
-84.11892374126451
 30
0.0
 10
36.91863315347858
 20
-84.13217086869307
 30
0.0
 10
36.81117037150896
 20
-84.17093121797443
 30
0.0
 10
36.76650963182141
 20
-84.18701985591942
 30
0.0
 10
36.6590803107886
 20
-84.22560876956442
 30
0.0
 10
36.59600706974636
 20
-84.24821724378484
 30
0.0
 10
36.38340023724484
 20
-84.32414592412113
 30
0.0
 10
36.20982789403061
 20
-84.38581792987176
 30
0.0
 10
35.7992433656146
 20
-84.53010057409315
 30
0.0
 10
35.56002607516729
 20
-84.6134547762657
 30
0.0
 10
35.03669878721968
 20
-84.79331833188841
 30
0.0
 10
34.7508098212789
 20
-84.89046929683475
 30
0.0
 10
34.28448429825814
 20
-85.04640217029386
 30
0.0
 10
34.12278142576032
 20
-85.10007645845474
 30
0.0
 10
33.79386295666735
 20
-85.20835627232614
 30
0.0
 10
33.62578569890533
 20
-85.26325140965496
 30
0.0
 10
33.1108138101433
 20
-85.42999676631081
 30
0.0
 10
32.75116054842933
 20
-85.5445400707554
 30
0.0
 10
32.01106931088893
 20
-85.7757280740864
 30
0.0
 10
31.63632152393786
 20
-85.8906165170295
 30
0.0
 10
31.25680737715842
 20
-86.00467293630265
 30
0.0
  0
SPLINE
  5
1AC
330
1F
100
AcDbEntity
  8
0
  6
Continuous
 62
     7
370
    15
100
AcDbSpline
210
0.0
220
0.0
230
1.0
 70
     8
 71
     3
 72
    26
 73
    22
 74
     0
 42
0.000000001
 43
0.00000001
 40
0.0
 40
0.0
 40
0.0
 40
0.0
 40
0.1249999999999664
 40
0.1249999999999664
 40
0.1874999999999498
 40
0.1874999999999498
 40
0.2499999999999332
 40
0.2499999999999332
 40
0.3749999999999339
 40
0.3749999999999339
 40
0.4999999999999347
 40
0.4999999999999347
 40
0.6249999999999355
 40
0.6249999999999355
 40
0.6874999999999456
 40
0.6874999999999456
 40
0.7499999999999556
 40
0.7499999999999556
 40
0.8749999999999778
 40
0.8749999999999778
 40
1.0
 40
1.0
 40
1.0
 40
1.0
 10
36.75100887975223
 20
-83.55473079241771
 30
0.0
 10
36.75100887975223
 20
-83.55473079241771
 30
0.0
 10
36.71446067098731
 20
-83.56797811313821
 30
0.0
 10
36.60699692546227
 20
-83.60673809441649
 30
0.0
 10
36.56233574917155
 20
-83.62282648180496
 30
0.0
 10
36.45490517198375
 20
-83.66141424595597
 30
0.0
 10
36.39183112129862
 20
-83.68402180625401
 30
0.0
 10
36.17922110915651
 20
-83.75994601098213
 30
0.0
 10
36.00564561783371
 20
-83.82161280191441
 30
0.0
 10
35.5950507877279
 20
-83.9658752198944
 30
0.0
 10
35.35582633125104
 20
-84.04921411268357
 30
0.0
 10
34.83247946056024
 20
-84.2290317434904
 30
0.0
 10
34.54657796590399
 20
-84.32615212018379
 30
0.0
 10
34.0802278784624
 20
-84.48202248185504
 30
0.0
 10
33.91851608890076
 20
-84.53567303449161
 30
0.0
 10
33.58957817555429
 20
-84.6439000442672
 30
0.0
 10
33.42149034181853
 20
-84.69876600650977
 30
0.0
 10
32.90648396085647
 20
-84.86541467882269
 30
0.0
 10
32.54680327919439
 20
-84.97988101123045
 30
0.0
 10
31.80665232895
 20
-85.21088685021105
 30
0.0
 10
31.43187151340395
 20
-85.3256719991628
 30
0.0
 10
31.05232104254153
 20
-85.43961213128654
 30
0.0
  0
SPLINE
  5
1AF
330
1F
100
AcDbEntity
  8
0
  6
Continuous
 62
     7
370
    15
100
AcDbSpline
210
0.0
220
0.0
230
1.0
 70
     8
 71
     3
 72
    16
 73
    12
 74
     0
 42
0.000000001
 43
0.00000001
 40
0.0
 40
0.0
 40
0.0
 40
0.0
 40
0.2499999999999976
 40
0.2499999999999976
 40
0.4999999999999952
 40
0.4999999999999952
 40
0.6249999999999941
 40
0.6249999999999941
 40
0.749999999999993
 40
0.749999999999993
 40
1.0
 40
1.0
 40
1.0
 40
1.0
 10
1.803187364664853
 20
524.3508529610942
 30
0.0
 10
0.7582247903492322
 20
524.6774152227295
 30
0.0
 10
-0.2943558762962817
 20
524.9465614636979
 30
0.0
 10
-2.421467874074025
 20
525.319416228254
 30
0.0
 10
-3.496162388791182
 20
525.4218948701771
 30
0.0
 10
-5.128450425575966
 20
525.4230208319879
 30
0.0
 10
-5.675108573474461
 20
525.3979689108731
 30
0.0
 10
-6.756455704243447
 20
525.3002791056377
 30
0.0
 10
-7.293503923121598
 20
525.227740411211
 30
0.0
 10
-8.895087191717069
 20
524.9476349804424
 30
0.0
 10
-9.950098109187564
 20
524.6778223853327
 30
0.0
 10
-10.99636355812078
 20
524.3508529610942
 30
0.0
  0
SPLINE
  5
1B4
330
1F
100
AcDbEntity
  8
0
  6
Continuous
 62
     7
370
    15
100
AcDbSpline
210
0.0
220
0.0
230
1.0
 70
     8
 71
     3
 72
     9
 73
     5
 74
     0
 42
0.000000001
 43
0.00000001
 40
0.0
 40
0.0
 40
0.0
 40
0.0
 40
0.347935377712733
 40
1.0
 40
1.0
 40
1.0
 40
1.0
 10
12.10287304247833
 20
525.2940540178989
 30
0.0
 10
12.18514306315516
 20
525.258081987839
 30
0.0
 10
12.42159507679532
 20
525.1546948867729
 30
0.0
 10
12.65037295928388
 20
524.668126798071
 30
0.0
 10
12.79955092281646
 20
524.3508529610943
 30
0.0
  0
SPLINE
  5
1B5
330
1F
100
AcDbEntity
  8
0
  6
Continuous
 62
     7
370
    15
100
AcDbSpline
210
0.0
220
0.0
230
1.0
 70
     8
 71
     3
 72
    16
 73
    12
 74
     0
 42
0.000000001
 43
0.00000001
 40
0.0
 40
0.0
 40
0.0
 40
0.0
 40
0.2499999999999929
 40
0.2499999999999929
 40
0.4999999999999858
 40
0.4999999999999858
 40
0.6249999999999893
 40
0.6249999999999893
 40
0.7499999999999929
 40
0.7499999999999929
 40
1.0
 40
1.0
 40
1.0
 40
1.0
 10
12.79955092281659
 20
524.3508529610943
 30
0.0
 10
11.90180158448778
 20
524.6774152227299
 30
0.0
 10
10.99750738271927
 20
524.9465614636978
 30
0.0
 10
9.170060701380551
 20
525.3194162282542
 30
0.0
 10
8.246768027358437
 20
525.4218948701771
 30
0.0
 10
6.84443502424079
 20
525.423020831988
 30
0.0
 10
6.374789505223656
 20
525.3979689108731
 30
0.0
 10
5.445781428750288
 20
525.3002791056379
 30
0.0
 10
4.984392001990834
 20
525.2277404112111
 30
0.0
 10
3.608438111391696
 20
524.9476349804426
 30
0.0
 10
2.702056029995997
 20
524.6778223853329
 30
0.0
 10
1.803187364664837
 20
524.3508529610943
 30
0.0
  0
SPLINE
  5
1B6
330
1F
100
AcDbEntity
  8
0
  6
Continuous
 62
     7
370
    15
100
AcDbSpline
210
0.0
220
0.0
230
1.0
 70
     8
 71
     3
 72
    14
 73
    10
 74
     0
 42
0.000000001
 43
0.00000001
 40
0.0
 40
0.0
 40
0.0
 40
0.0
 40
0.25
 40
0.25
 40
0.5
 40
0.5
 40
0.75
 40
0.75
 40
1.0
 40
1.0
 40
1.0
 40
1.0
 10
-10.99636355812071
 20
524.3508529610942
 30
0.0
 10
-11.14364791306779
 20
524.6775729855037
 30
0.0
 10
-11.29208519545447
 20
524.9470239691074
 30
0.0
 10
-11.5922964267349
 20
525.3201846382981
 30
0.0
 10
-11.74409543149615
 20
525.4226497308186
 30
0.0
 10
-12.05181904937891
 20
525.4226497308186
 30
0.0
 10
-12.20361805414021
 20
525.3201846382982
 30
0.0
 10
-12.50382928542065
 20
524.9470239691074
 30
0.0
 10
-12.6522665678073
 20
524.677572985504
 30
0.0
 10
-12.79955092275438
 20
524.3508529610943
 30
0.0
  0
SPLINE
  5
1B9
330
1F
100
AcDbEntity
  8
0
  6
Continuous
 62
     7
370
    15
100
AcDbSpline
210
0.0
220
0.0
230
1.0
 70
     8
 71
     3
 72
    16
 73
    12
 74
     0
 42
0.000000001
 43
0.00000001
 40
0.0
 40
0.0
 40
0.0
 40
0.0
 40
0.2500000000000046
 40
0.2500000000000046
 40
0.5000000000000091
 40
0.5000000000000091
 40
0.6250000000000068
 40
0.6250000000000068
 40
0.7500000000000046
 40
0.7500000000000046
 40
1.0
 40
1.0
 40
1.0
 40
1.0
 10
-10.99636355812126
 20
-94.35085296109236
 30
0.0
 10
-9.95140098380564
 20
-94.67741522272777
 30
0.0
 10
-8.898820317160142
 20
-94.94656146369601
 30
0.0
 10
-6.7717083193824
 20
-95.31941622825235
 30
0.0
 10
-5.697013804665245
 20
-95.42189487017505
 30
0.0
 10
-4.064725767880466
 20
-95.42302083198618
 30
0.0
 10
-3.51806761998194
 20
-95.39796891087116
 30
0.0
 10
-2.436720489212959
 20
-95.30027910563594
 30
0.0
 10
-1.899672270334789
 20
-95.22774041120924
 30
0.0
 10
-0.2980890017393287
 20
-94.94763498044063
 30
0.0
 10
0.7569219157311479
 20
-94.67782238533073
 30
0.0
 10
1.803187364664369
 20
-94.35085296109236
 30
0.0
  0
SPLINE
  5
1C0
330
1F
100
AcDbEntity
  8
0
  6
Continuous
 62
     7
370
    15
100
AcDbSpline
210
0.0
220
0.0
230
1.0
 70
     8
 71
     3
 72
    14
 73
    10
 74
     0
 42
0.000000001
 43
0.00000001
 40
0.0
 40
0.0
 40
0.0
 40
0.0
 40
0.25
 40
0.25
 40
0.5
 40
0.5
 40
0.75
 40
0.75
 40
1.0
 40
1.0
 40
1.0
 40
1.0
 10
-12.79955092275525
 20
-94.3508529610923
 30
0.0
 10
-12.65226656780813
 20
-94.67757298550194
 30
0.0
 10
-12.50382928542144
 20
-94.94702396910549
 30
0.0
 10
-12.20361805414092
 20
-95.32018463829628
 30
0.0
 10
-12.05181904937962
 20
-95.42264973081687
 30
0.0
 10
-11.74409543149677
 20
-95.42264973081687
 30
0.0
 10
-11.59229642673546
 20
-95.32018463829634
 30
0.0
 10
-11.29208519545494
 20
-94.94702396910554
 30
0.0
 10
-11.14364791306825
 20
-94.67757298550211
 30
0.0
 10
-10.99636355812113
 20
-94.35085296109241
 30
0.0
  0
SPLINE
  5
1C1
330
1F
100
AcDbEntity
  8
0
  6
Continuous
 62
     7
370
    15
100
AcDbSpline
210
0.0
220
0.0
230
1.0
 70
     8
 71
     3
 72
    16
 73
    12
 74
     0
 42
0.000000001
 43
0.00000001
 40
0.0
 40
0.0
 40
0.0
 40
0.0
 40
0.2500000000000106
 40
0.2500000000000106
 40
0.5000000000000212
 40
0.5000000000000212
 40
0.6250000000000194
 40
0.6250000000000194
 40
0.7500000000000175
 40
0.7500000000000175
 40
1.0
 40
1.0
 40
1.0
 40
1.0
 10
1.803187364664377
 20
-94.3508529610923
 30
0.0
 10
2.700936702993187
 20
-94.67741522272777
 30
0.0
 10
3.605230904761656
 20
-94.94656146369596
 30
0.0
 10
5.432677586100369
 20
-95.31941622825224
 30
0.0
 10
6.355970260122493
 20
-95.42189487017505
 30
0.0
 10
7.758303263240136
 20
-95.42302083198612
 30
0.0
 10
8.22794878225732
 20
-95.3979689108711
 30
0.0
 10
9.15695685873068
 20
-95.30027910563582
 30
0.0
 10
9.61834628549006
 20
-95.22774041120918
 30
0.0
 10
10.99430017608919
 20
-94.94763498044045
 30
0.0
 10
11.9006822574849
 20
-94.67782238533063
 30
0.0
 10
12.79955092281606
 20
-94.35085296109224
 30
0.0
  0
SPLINE
  5
1C2
330
1F
100
AcDbEntity
  8
0
  6
Continuous
 62
     7
370
    15
100
AcDbSpline
210
0.0
220
0.0
230
1.0
 70
     8
 71
     3
 72
     9
 73
     5
 74
     0
 42
0.000000001
 43
0.00000001
 40
0.0
 40
0.0
 40
0.0
 40
0.0
 40
0.6391387101964441
 40
0.9999999999999999
 40
0.9999999999999999
 40
0.9999999999999999
 40
0.9999999999999999
 10
12.79955092281597
 20
-94.3508529610923
 30
0.0
 10
12.65336477128578
 20
-94.66212178636435
 30
0.0
 10
12.42464110113716
 20
-95.14913473098224
 30
0.0
 10
12.18818724030978
 20
-95.25380497910685
 30
0.0
 10
12.10286019511258
 20
-95.29157641984915
 30
0.0
  0
LWPOLYLINE
  5
1C7
330
1F
100
AcDbEntity
  8
0
  6
Continuous
 62
     7
370
    15
100
AcDbPolyline
 90
       36
 70
   128
 43
0.0
 10
-340.8063389136
 20
225.0124168914
 10
-339.1501825814
 20
224.0381183129
 10
-337.688681285
 20
222.7733271752
 10
-336.4688088786
 20
221.2586949062
 10
-335.529773065
 20
219.5429030332
 10
-334.9017552279
 20
217.6810985189
 10
-334.6049403773
 20
215.7331212921
 10
-334.6488683868
 20
213.7615809438
 10
-335.032127374
 20
211.8298444029
 10
-335.7423990797
 20
209.9999992714
 10
-336.7568547869
 20
208.3308582772
 10
-338.0428890543
 20
206.8760689854
 10
-339.5591676826
 20
205.6823895209
 10
-341.256956229
 20
204.7881857236
 10
-343.0816863727
 20
204.2221980396
 10
-344.9747097855
 20
204.0026177785
 10
-346.8751831372
 20
204.1365024307
 10
-348.7220236508
 20
204.6195488333
 10
-350.4558723524
 20
205.4362314775
 10
-352.0210019181
 20
206.5603015111
 10
-353.3671077961
 20
207.9556303983
 10
-354.4509250357
 20
209.5773711206
 10
-355.237618859
 20
211.3733995969
 10
-355.7019042795
 20
213.2859899941
 10
-355.8288587815
 20
215.2536700832
 10
-355.6144019429
 20
217.2131970071
 10
-355.0654265831
 20
219.1015899582
 10
-354.1995772217
 20
220.8581544332
 10
-353.0446829697
 20
222.4264330046
 10
-351.6378630785
 20
223.7560199088
 10
-350.0243338971
 20
224.8041811286
 10
-348.2559555808
 20
225.5372279
 10
-346.3895652639
 20
225.9315994967
 10
-344.4851502667
 20
225.974620491
 10
-342.6039200543
 20
225.6649081528
 10
-340.8063389136
 20
225.0124168914
  0
SPLINE
  5
1C8
330
1F
100
AcDbEntity
  8
0
  6
Continuous
 62
     7
370
    15
100
AcDbSpline
210
0.0
220
0.0
230
1.0
 70
     8
 71
     3
 72
    16
 73
    12
 74
     0
 42
0.000000001
 43
0.00000001
 40
0.0
 40
0.0
 40
0.0
 40
0.0
 40
0.2500000000000001
 40
0.2500000000000001
 40
0.5000000000000002
 40
0.5000000000000002
 40
0.6249999999999976
 40
0.6249999999999976
 40
0.749999999999995
 40
0.749999999999995
 40
1.0
 40
1.0
 40
1.0
 40
1.0
 10
-337.0005958439253
 20
203.7243048387951
 30
0.0
 10
-338.172718906393
 20
203.6151775921985
 30
0.0
 10
-339.3379105596832
 20
203.5052547750612
 30
0.0
 10
-341.6483218009894
 20
203.2831167949789
 30
0.0
 10
-342.7933929145385
 20
203.1708845904903
 30
0.0
 10
-344.4925782873854
 20
203.0004219313625
 30
0.0
 10
-345.0550590414596
 20
202.9433334767364
 30
0.0
 10
-346.1552468263451
 20
202.8304065280624
 30
0.0
 10
-346.6954350345532
 20
202.7743216549231
 30
0.0
 10
-348.2898746830955
 20
202.6070655477735
 30
0.0
 10
-349.3181029428915
 20
202.4968889353449
 30
0.0
 10
-350.3224355972146
 20
202.3876256273015
 30
0.0
  0
SPLINE
  5
1C9
330
1F
100
AcDbEntity
  8
0
  6
Continuous
 62
     7
370
    15
100
AcDbSpline
210
0.0
220
0.0
230
1.0
 70
     8
 71
     3
 72
    16
 73
    12
 74
     0
 42
0.000000001
 43
0.00000001
 40
0.0
 40
0.0
 40
0.0
 40
0.0
 40
0.2499999999999994
 40
0.2499999999999994
 40
0.4999999999999988
 40
0.4999999999999988
 40
0.6249999999999984
 40
0.6249999999999984
 40
0.7499999999999982
 40
0.7499999999999982
 40
1.0
 40
1.0
 40
1.0
 40
1.0
 10
-350.3224355972146
 20
202.3876256273015
 30
0.0
 10
-351.0420441157701
 20
203.3081797556403
 30
0.0
 10
-351.7514222576433
 20
204.2354450012157
 30
0.0
 10
-353.1407008773768
 20
206.1093128115298
 30
0.0
 10
-353.8203822151336
 20
207.0560591319651
 30
0.0
 10
-354.8127154052764
 20
208.4940144500149
 30
0.0
 10
-355.138469248213
 20
208.9755899888973
 30
0.0
 10
-355.7703863832993
 20
209.9281968954638
 30
0.0
 10
-356.0780092003649
 20
210.4013066193493
 30
0.0
 10
-356.9788931751067
 20
211.8122127379244
 30
0.0
 10
-357.5502555184806
 20
212.7416188998205
 30
0.0
 10
-358.1015094271411
 20
213.6633207885072
 30
0.0
  0
SPLINE
  5
1CA
330
1F
100
AcDbEntity
  8
0
  6
Continuous
 62
     7
370
    15
100
AcDbSpline
210
0.0
220
0.0
230
1.0
 70
     8
 71
     3
 72
    14
 73
    10
 74
     0
 42
0.000000001
 43
0.00000001
 40
0.0
 40
0.0
 40
0.0
 40
0.0
 40
0.25
 40
0.25
 40
0.5
 40
0.5
 40
0.75
 40
0.75
 40
1.0
 40
1.0
 40
1.0
 40
1.0
 10
-358.1015094271411
 20
213.6633207885072
 30
0.0
 10
-357.7333376374301
 20
214.6934996042352
 30
0.0
 10
-357.3467995786742
 20
215.731742558376
 30
0.0
 10
-356.5205699731972
 20
217.8315667441822
 30
0.0
 10
-356.0804792835748
 20
218.8933232288398
 30
0.0
 10
-355.1345764803124
 20
221.0456927208739
 30
0.0
 10
-354.6414459558851
 20
222.1074492055315
 30
0.0
 10
-353.6220541742687
 20
224.2072733913377
 30
0.0
 10
-353.0960380229562
 20
225.2455163454785
 30
0.0
 10
-352.5587435037781
 20
226.2756951612065
 30
0.0
  0
SPLINE
  5
1CB
330
1F
100
AcDbEntity
  8
0
  6
Continuous
 62
     7
370
    15
100
AcDbSpline
210
0.0
220
0.0
230
1.0
 70
     8
 71
     3
 72
    16
 73
    12
 74
     0
 42
0.000000001
 43
0.00000001
 40
0.0
 40
0.0
 40
0.0
 40
0.0
 40
0.2500000000000027
 40
0.2500000000000027
 40
0.5000000000000054
 40
0.5000000000000054
 40
0.6250000000000011
 40
0.6250000000000011
 40
0.7499999999999968
 40
0.7499999999999968
 40
1.0
 40
1.0
 40
1.0
 40
1.0
 10
-352.5587435037781
 20
226.2756951612066
 30
0.0
 10
-351.5556615067566
 20
226.3848224078032
 30
0.0
 10
-350.5297901996268
 20
226.4947452249404
 30
0.0
 10
-348.4123827865693
 20
226.7168832050227
 30
0.0
 10
-347.3203585215119
 20
226.8291154095113
 30
0.0
 10
-345.6217559893868
 20
226.9995780686391
 30
0.0
 10
-345.0463074067105
 20
227.0566665232652
 30
0.0
 10
-343.8955516576104
 20
227.1695934719392
 30
0.0
 10
-343.3178146581535
 20
227.2256783450784
 30
0.0
 10
-341.5783817693717
 20
227.3929344522279
 30
0.0
 10
-340.41048823313
 20
227.5031110646567
 30
0.0
 10
-339.2369037504888
 20
227.6123743727
 30
0.0
  0
SPLINE
  5
1CC
330
1F
100
AcDbEntity
  8
0
  6
Continuous
 62
     7
370
    15
100
AcDbSpline
210
0.0
220
0.0
230
1.0
 70
     8
 71
     3
 72
    16
 73
    12
 74
     0
 42
0.000000001
 43
0.00000001
 40
0.0
 40
0.0
 40
0.0
 40
0.0
 40
0.2500000000000029
 40
0.2500000000000029
 40
0.5000000000000059
 40
0.5000000000000059
 40
0.6250000000000073
 40
0.6250000000000073
 40
0.7500000000000089
 40
0.7500000000000089
 40
1.0
 40
1.0
 40
1.0
 40
1.0
 10
-339.2369037504887
 20
227.6123743727001
 30
0.0
 10
-338.6863362973794
 20
226.6918202443614
 30
0.0
 10
-338.1162785016665
 20
225.7645549987859
 30
0.0
 10
-336.9200037101817
 20
223.8906871884717
 30
0.0
 10
-336.2933692209168
 20
222.9439408680364
 30
0.0
 10
-335.3016188714955
 20
221.5059855499867
 30
0.0
 10
-334.9628971999571
 20
221.0244100111042
 30
0.0
 10
-334.2804121006564
 20
220.0718031045377
 30
0.0
 10
-333.9352404923416
 20
219.5986933806522
 30
0.0
 10
-332.8893632773607
 20
218.1877872620773
 30
0.0
 10
-332.178335657541
 20
217.258381100181
 30
0.0
 10
-331.4578299205622
 20
216.3366792114942
 30
0.0
  0
SPLINE
  5
1CD
330
1F
100
AcDbEntity
  8
0
  6
Continuous
 62
     7
370
    15
100
AcDbSpline
210
0.0
220
0.0
230
1.0
 70
     8
 71
     3
 72
    14
 73
    10
 74
     0
 42
0.000000001
 43
0.00000001
 40
0.0
 40
0.0
 40
0.0
 40
0.0
 40
0.25
 40
0.25
 40
0.5
 40
0.5
 40
0.75
 40
0.75
 40
1.0
 40
1.0
 40
1.0
 40
1.0
 10
-331.4578299205623
 20
216.3366792114941
 30
0.0
 10
-331.9951244397405
 20
215.3065003957661
 30
0.0
 10
-332.5211405910529
 20
214.2682574416253
 30
0.0
 10
-333.5405323726692
 20
212.1684332558191
 30
0.0
 10
-334.0336628970966
 20
211.1066767711618
 30
0.0
 10
-334.979565700359
 20
208.9543072791278
 30
0.0
 10
-335.4196563899815
 20
207.8925507944701
 30
0.0
 10
-336.2458859954583
 20
205.7927266086639
 30
0.0
 10
-336.6324240542144
 20
204.7544836545232
 30
0.0
 10
-337.0005958439253
 20
203.7243048387951
 30
0.0
  0
SPLINE
  5
1D5
330
1F
100
AcDbEntity
  8
0
  6
Continuous
 62
     7
370
    15
100
AcDbSpline
210
0.0
220
0.0
230
1.0
 70
     8
 71
     3
 72
    14
 73
    10
 74
     0
 42
0.000000001
 43
0.00000001
 40
0.0
 40
0.0
 40
0.0
 40
0.0
 40
0.25
 40
0.25
 40
0.5
 40
0.5
 40
0.75
 40
0.75
 40
1.0
 40
1.0
 40
1.0
 40
1.0
 10
257.7569241157718
 20
216.3366792114854
 30
0.0
 10
257.2196295965937
 20
215.3065003957574
 30
0.0
 10
256.6936134452813
 20
214.2682574416166
 30
0.0
 10
255.6742216636649
 20
212.1684332558103
 30
0.0
 10
255.1810911392377
 20
211.106676771153
 30
0.0
 10
254.2351883359751
 20
208.954307279119
 30
0.0
 10
253.7950976463527
 20
207.8925507944613
 30
0.0
 10
252.9688680408759
 20
205.7927266086552
 30
0.0
 10
252.5823299821199
 20
204.7544836545144
 30
0.0
 10
252.2141581924089
 20
203.7243048387864
 30
0.0
  0
LWPOLYLINE
  5
1D9
330
1F
100
AcDbEntity
  8
0
  6
Continuous
 62
     7
370
    15
100
AcDbPolyline
 90
       36
 70
   128
 43
0.0
 10
248.4084151228
 20
225.0124168914
 10
250.0645714549
 20
224.0381183129
 10
251.5260727513
 20
222.7733271752
 10
252.7459451578
 20
221.2586949062
 10
253.6849809714
 20
219.5429030332
 10
254.3129988085
 20
217.6810985189
 10
254.609813659
 20
215.7331212921
 10
254.5658856495
 20
213.7615809438
 10
254.1826266623
 20
211.8298444029
 10
253.4723549566
 20
209.9999992713
 10
252.4578992495
 20
208.3308582772
 10
251.171864982
 20
206.8760689854
 10
249.6555863537
 20
205.6823895208
 10
247.9577978073
 20
204.7881857236
 10
246.1330676636
 20
204.2221980395
 10
244.2400442509
 20
204.0026177785
 10
242.3395708991
 20
204.1365024307
 10
240.4927303856
 20
204.6195488333
 10
238.758881684
 20
205.4362314775
 10
237.1937521182
 20
206.5603015111
 10
235.8476462403
 20
207.9556303983
 10
234.7638290007
 20
209.5773711206
 10
233.9771351773
 20
211.3733995969
 10
233.5128497569
 20
213.2859899941
 10
233.3858952549
 20
215.2536700832
 10
233.6003520934
 20
217.2131970071
 10
234.1493274532
 20
219.1015899582
 10
235.0151768146
 20
220.8581544332
 10
236.1700710666
 20
222.4264330046
 10
237.5768909578
 20
223.7560199088
 10
239.1904201393
 20
224.8041811286
 10
240.9587984555
 20
225.5372279
 10
242.8251887725
 20
225.9315994967
 10
244.7296037696
 20
225.974620491
 10
246.610833982
 20
225.6649081528
 10
248.4084151228
 20
225.0124168914
  0
SPLINE
  5
1DA
330
1F
100
AcDbEntity
  8
0
  6
Continuous
 62
     7
370
    15
100
AcDbSpline
210
0.0
220
0.0
230
1.0
 70
     8
 71
     3
 72
    16
 73
    12
 74
     0
 42
0.000000001
 43
0.00000001
 40
0.0
 40
0.0
 40
0.0
 40
0.0
 40
0.2499999999999996
 40
0.2499999999999996
 40
0.4999999999999992
 40
0.4999999999999992
 40
0.6249999999999992
 40
0.6249999999999992
 40
0.7499999999999992
 40
0.7499999999999992
 40
1.0
 40
1.0
 40
1.0
 40
1.0
 10
252.2141581924089
 20
203.7243048387864
 30
0.0
 10
251.0420351299412
 20
203.6151775921898
 30
0.0
 10
249.876843476651
 20
203.5052547750525
 30
0.0
 10
247.5664322353447
 20
203.2831167949702
 30
0.0
 10
246.4213611217956
 20
203.1708845904815
 30
0.0
 10
244.7221757489488
 20
203.0004219313538
 30
0.0
 10
244.1596949948746
 20
202.9433334767277
 30
0.0
 10
243.059507209989
 20
202.8304065280538
 30
0.0
 10
242.5193190017811
 20
202.7743216549144
 30
0.0
 10
240.9248793532387
 20
202.6070655477649
 30
0.0
 10
239.8966510934427
 20
202.4968889353361
 30
0.0
 10
238.8923184391196
 20
202.3876256272927
 30
0.0
  0
SPLINE
  5
1DB
330
1F
100
AcDbEntity
  8
0
  6
Continuous
 62
     7
370
    15
100
AcDbSpline
210
0.0
220
0.0
230
1.0
 70
     8
 71
     3
 72
    16
 73
    12
 74
     0
 42
0.000000001
 43
0.00000001
 40
0.0
 40
0.0
 40
0.0
 40
0.0
 40
0.2500000000000038
 40
0.2500000000000038
 40
0.5000000000000075
 40
0.5000000000000075
 40
0.6250000000000094
 40
0.6250000000000094
 40
0.7500000000000113
 40
0.7500000000000113
 40
1.0
 40
1.0
 40
1.0
 40
1.0
 10
238.8923184391196
 20
202.3876256272927
 30
0.0
 10
238.1727099205642
 20
203.3081797556315
 30
0.0
 10
237.4633317786908
 20
204.235445001207
 30
0.0
 10
236.0740531589571
 20
206.109312811521
 30
0.0
 10
235.3943718212006
 20
207.0560591319564
 30
0.0
 10
234.4020386310578
 20
208.4940144500061
 30
0.0
 10
234.0762847881213
 20
208.9755899888885
 30
0.0
 10
233.444367653035
 20
209.928196895455
 30
0.0
 10
233.1367448359693
 20
210.4013066193406
 30
0.0
 10
232.2358608612274
 20
211.8122127379155
 30
0.0
 10
231.6644985178536
 20
212.7416188998118
 30
0.0
 10
231.1132446091931
 20
213.6633207884985
 30
0.0
  0
SPLINE
  5
1DC
330
1F
100
AcDbEntity
  8
0
  6
Continuous
 62
     7
370
    15
100
AcDbSpline
210
0.0
220
0.0
230
1.0
 70
     8
 71
     3
 72
    14
 73
    10
 74
     0
 42
0.000000001
 43
0.00000001
 40
0.0
 40
0.0
 40
0.0
 40
0.0
 40
0.25
 40
0.25
 40
0.5
 40
0.5
 40
0.75
 40
0.75
 40
1.0
 40
1.0
 40
1.0
 40
1.0
 10
231.1132446091931
 20
213.6633207884985
 30
0.0
 10
231.481416398904
 20
214.6934996042265
 30
0.0
 10
231.8679544576602
 20
215.7317425583673
 30
0.0
 10
232.6941840631369
 20
217.8315667441734
 30
0.0
 10
233.1342747527593
 20
218.893323228831
 30
0.0
 10
234.0801775560218
 20
221.0456927208651
 30
0.0
 10
234.5733080804491
 20
222.1074492055228
 30
0.0
 10
235.5926998620656
 20
224.2072733913289
 30
0.0
 10
236.118716013378
 20
225.2455163454697
 30
0.0
 10
236.6560105325561
 20
226.2756951611977
 30
0.0
  0
SPLINE
  5
1DD
330
1F
100
AcDbEntity
  8
0
  6
Continuous
 62
     7
370
    15
100
AcDbSpline
210
0.0
220
0.0
230
1.0
 70
     8
 71
     3
 72
    16
 73
    12
 74
     0
 42
0.000000001
 43
0.00000001
 40
0.0
 40
0.0
 40
0.0
 40
0.0
 40
0.2500000000000011
 40
0.2500000000000011
 40
0.5000000000000022
 40
0.5000000000000022
 40
0.6250000000000002
 40
0.6250000000000002
 40
0.7499999999999982
 40
0.7499999999999982
 40
1.0
 40
1.0
 40
1.0
 40
1.0
 10
236.656010532556
 20
226.2756951611978
 30
0.0
 10
237.6590925295777
 20
226.3848224077944
 30
0.0
 10
238.6849638367073
 20
226.4947452249317
 30
0.0
 10
240.8023712497648
 20
226.716883205014
 30
0.0
 10
241.8943955148222
 20
226.8291154095026
 30
0.0
 10
243.5929980469476
 20
226.9995780686305
 30
0.0
 10
244.1684466296237
 20
227.0566665232565
 30
0.0
 10
245.3192023787238
 20
227.1695934719304
 30
0.0
 10
245.8969393781806
 20
227.2256783450697
 30
0.0
 10
247.6363722669622
 20
227.3929344522192
 30
0.0
 10
248.8042658032041
 20
227.5031110646479
 30
0.0
 10
249.9778502858454
 20
227.6123743726913
 30
0.0
  0
SPLINE
  5
1DE
330
1F
100
AcDbEntity
  8
0
  6
Continuous
 62
     7
370
    15
100
AcDbSpline
210
0.0
220
0.0
230
1.0
 70
     8
 71
     3
 72
    16
 73
    12
 74
     0
 42
0.000000001
 43
0.00000001
 40
0.0
 40
0.0
 40
0.0
 40
0.0
 40
0.250000000000003
 40
0.250000000000003
 40
0.500000000000006
 40
0.500000000000006
 40
0.6250000000000075
 40
0.6250000000000075
 40
0.750000000000009
 40
0.750000000000009
 40
1.0
 40
1.0
 40
1.0
 40
1.0
 10
249.9778502858454
 20
227.6123743726914
 30
0.0
 10
250.5284177389549
 20
226.6918202443527
 30
0.0
 10
251.0984755346677
 20
225.7645549987771
 30
0.0
 10
252.2947503261524
 20
223.8906871884629
 30
0.0
 10
252.9213848154173
 20
222.9439408680277
 30
0.0
 10
253.9131351648386
 20
221.5059855499779
 30
0.0
 10
254.2518568363771
 20
221.0244100110955
 30
0.0
 10
254.9343419356778
 20
220.071803104529
 30
0.0
 10
255.2795135439925
 20
219.5986933806434
 30
0.0
 10
256.3253907589735
 20
218.1877872620684
 30
0.0
 10
257.0364183787933
 20
217.2583811001722
 30
0.0
 10
257.7569241157719
 20
216.3366792114854
 30
0.0
  0
SPLINE
  5
1E3
330
1F
100
AcDbEntity
  8
0
  6
Continuous
 62
     7
370
    15
100
AcDbSpline
210
0.0
220
0.0
230
1.0
 70
     8
 71
     3
 72
    14
 73
    10
 74
     0
 42
0.000000001
 43
0.00000001
 40
0.0
 40
0.0
 40
0.0
 40
0.0
 40
0.25
 40
0.25
 40
0.5
 40
0.5
 40
0.75
 40
0.75
 40
1.0
 40
1.0
 40
1.0
 40
1.0
 10
108.0384210409662
 20
216.3366792114854
 30
0.0
 10
107.5011265217881
 20
215.3065003957574
 30
0.0
 10
106.9751103704757
 20
214.2682574416166
 30
0.0
 10
105.9557185888593
 20
212.1684332558104
 30
0.0
 10
105.462588064432
 20
211.1066767711531
 30
0.0
 10
104.5166852611695
 20
208.954307279119
 30
0.0
 10
104.0765945715471
 20
207.8925507944613
 30
0.0
 10
103.2503649660704
 20
205.7927266086552
 30
0.0
 10
102.8638269073143
 20
204.7544836545144
 30
0.0
 10
102.4956551176033
 20
203.7243048387864
 30
0.0
  0
LWPOLYLINE
  5
1E7
330
1F
100
AcDbEntity
  8
0
  6
Continuous
 62
     7
370
    15
100
AcDbPolyline
 90
       36
 70
   128
 43
0.0
 10
98.689912048
 20
225.0124168914
 10
100.3460683801
 20
224.0381183129
 10
101.8075696765
 20
222.7733271752
 10
103.027442083
 20
221.2586949062
 10
103.9664778966
 20
219.5429030332
 10
104.5944957336
 20
217.6810985189
 10
104.8913105842
 20
215.7331212921
 10
104.8473825747
 20
213.7615809438
 10
104.4641235875
 20
211.8298444029
 10
103.7538518818
 20
209.9999992713
 10
102.7393961747
 20
208.3308582772
 10
101.4533619072
 20
206.8760689854
 10
99.9370832789
 20
205.6823895208
 10
98.2392947325
 20
204.7881857236
 10
96.4145645888
 20
204.2221980395
 10
94.521541176
 20
204.0026177785
 10
92.6210678243
 20
204.1365024307
 10
90.7742273108
 20
204.6195488333
 10
89.0403786092
 20
205.4362314775
 10
87.4752490434
 20
206.5603015111
 10
86.1291431655
 20
207.9556303983
 10
85.0453259259
 20
209.5773711206
 10
84.2586321025
 20
211.3733995969
 10
83.7943466821
 20
213.2859899941
 10
83.66739218
 20
215.2536700832
 10
83.8818490186
 20
217.2131970071
 10
84.4308243784
 20
219.1015899582
 10
85.2966737398
 20
220.8581544332
 10
86.4515679918
 20
222.4264330046
 10
87.858387883
 20
223.7560199088
 10
89.4719170645
 20
224.8041811286
 10
91.2402953807
 20
225.5372279
 10
93.1066856976
 20
225.9315994967
 10
95.0111006948
 20
225.974620491
 10
96.8923309072
 20
225.6649081528
 10
98.689912048
 20
225.0124168914
  0
SPLINE
  5
1E8
330
1F
100
AcDbEntity
  8
0
  6
Continuous
 62
     7
370
    15
100
AcDbSpline
210
0.0
220
0.0
230
1.0
 70
     8
 71
     3
 72
    16
 73
    12
 74
     0
 42
0.000000001
 43
0.00000001
 40
0.0
 40
0.0
 40
0.0
 40
0.0
 40
0.2499999999999999
 40
0.2499999999999999
 40
0.4999999999999998
 40
0.4999999999999998
 40
0.6249999999999999
 40
0.6249999999999999
 40
0.7500000000000001
 40
0.7500000000000001
 40
1.0
 40
1.0
 40
1.0
 40
1.0
 10
102.4956551176033
 20
203.7243048387864
 30
0.0
 10
101.3235320551356
 20
203.6151775921899
 30
0.0
 10
100.1583404018454
 20
203.5052547750525
 30
0.0
 10
97.84792916053911
 20
203.2831167949702
 30
0.0
 10
96.70285804699003
 20
203.1708845904816
 30
0.0
 10
95.00367267414322
 20
203.0004219313538
 30
0.0
 10
94.44119192006893
 20
202.9433334767277
 30
0.0
 10
93.34100413518325
 20
202.8304065280538
 30
0.0
 10
92.80081592697549
 20
202.7743216549145
 30
0.0
 10
91.20637627843298
 20
202.6070655477648
 30
0.0
 10
90.17814801863706
 20
202.4968889353361
 30
0.0
 10
89.17381536431395
 20
202.3876256272928
 30
0.0
  0
SPLINE
  5
1E9
330
1F
100
AcDbEntity
  8
0
  6
Continuous
 62
     7
370
    15
100
AcDbSpline
210
0.0
220
0.0
230
1.0
 70
     8
 71
     3
 72
    16
 73
    12
 74
     0
 42
0.000000001
 43
0.00000001
 40
0.0
 40
0.0
 40
0.0
 40
0.0
 40
0.2500000000000022
 40
0.2500000000000022
 40
0.5000000000000044
 40
0.5000000000000044
 40
0.6250000000000063
 40
0.6250000000000063
 40
0.7500000000000082
 40
0.7500000000000082
 40
1.0
 40
1.0
 40
1.0
 40
1.0
 10
89.17381536431395
 20
202.3876256272928
 30
0.0
 10
88.45420684575855
 20
203.3081797556315
 30
0.0
 10
87.74482870388516
 20
204.235445001207
 30
0.0
 10
86.3555500841516
 20
206.1093128115211
 30
0.0
 10
85.67586874639491
 20
207.0560591319564
 30
0.0
 10
84.6835355562522
 20
208.4940144500061
 30
0.0
 10
84.35778171331567
 20
208.9755899888885
 30
0.0
 10
83.72586457822929
 20
209.9281968954551
 30
0.0
 10
83.41824176116357
 20
210.4013066193406
 30
0.0
 10
82.51735778642183
 20
211.8122127379157
 30
0.0
 10
81.94599544304813
 20
212.7416188998119
 30
0.0
 10
81.39474153438748
 20
213.6633207884985
 30
0.0
  0
SPLINE
  5
1EA
330
1F
100
AcDbEntity
  8
0
  6
Continuous
 62
     7
370
    15
100
AcDbSpline
210
0.0
220
0.0
230
1.0
 70
     8
 71
     3
 72
    14
 73
    10
 74
     0
 42
0.000000001
 43
0.00000001
 40
0.0
 40
0.0
 40
0.0
 40
0.0
 40
0.25
 40
0.25
 40
0.5
 40
0.5
 40
0.75
 40
0.75
 40
1.0
 40
1.0
 40
1.0
 40
1.0
 10
81.39474153438748
 20
213.6633207884985
 30
0.0
 10
81.76291332409845
 20
214.6934996042265
 30
0.0
 10
82.14945138285451
 20
215.7317425583673
 30
0.0
 10
82.97568098833132
 20
217.8315667441735
 30
0.0
 10
83.41577167795369
 20
218.8933232288311
 30
0.0
 10
84.36167448121618
 20
221.0456927208652
 30
0.0
 10
84.85480500564354
 20
222.1074492055228
 30
0.0
 10
85.87419678725993
 20
224.207273391329
 30
0.0
 10
86.40021293857237
 20
225.2455163454698
 30
0.0
 10
86.9375074577505
 20
226.2756951611978
 30
0.0
  0
SPLINE
  5
1EB
330
1F
100
AcDbEntity
  8
0
  6
Continuous
 62
     7
370
    15
100
AcDbSpline
210
0.0
220
0.0
230
1.0
 70
     8
 71
     3
 72
    16
 73
    12
 74
     0
 42
0.000000001
 43
0.00000001
 40
0.0
 40
0.0
 40
0.0
 40
0.0
 40
0.2499999999999983
 40
0.2499999999999983
 40
0.4999999999999967
 40
0.4999999999999967
 40
0.6249999999999974
 40
0.6249999999999974
 40
0.7499999999999983
 40
0.7499999999999983
 40
1.0
 40
1.0
 40
1.0
 40
1.0
 10
86.9375074577504
 20
226.2756951611979
 30
0.0
 10
87.94058945477208
 20
226.3848224077944
 30
0.0
 10
88.96646076190169
 20
226.4947452249317
 30
0.0
 10
91.08386817495914
 20
226.716883205014
 30
0.0
 10
92.17589244001658
 20
226.8291154095026
 30
0.0
 10
93.87449497214187
 20
226.9995780686305
 30
0.0
 10
94.44994355481805
 20
227.0566665232565
 30
0.0
 10
95.60069930391823
 20
227.1695934719305
 30
0.0
 10
96.17843630337504
 20
227.2256783450698
 30
0.0
 10
97.91786919215669
 20
227.3929344522193
 30
0.0
 10
99.0857627283985
 20
227.5031110646481
 30
0.0
 10
100.2593472110398
 20
227.6123743726914
 30
0.0
  0
SPLINE
  5
1EC
330
1F
100
AcDbEntity
  8
0
  6
Continuous
 62
     7
370
    15
100
AcDbSpline
210
0.0
220
0.0
230
1.0
 70
     8
 71
     3
 72
    16
 73
    12
 74
     0
 42
0.000000001
 43
0.00000001
 40
0.0
 40
0.0
 40
0.0
 40
0.0
 40
0.2500000000000021
 40
0.2500000000000021
 40
0.5000000000000042
 40
0.5000000000000042
 40
0.6250000000000043
 40
0.6250000000000043
 40
0.7500000000000046
 40
0.7500000000000046
 40
1.0
 40
1.0
 40
1.0
 40
1.0
 10
100.2593472110399
 20
227.6123743726914
 30
0.0
 10
100.8099146641493
 20
226.6918202443528
 30
0.0
 10
101.379972459862
 20
225.7645549987772
 30
0.0
 10
102.5762472513468
 20
223.8906871884629
 30
0.0
 10
103.2028817406118
 20
222.9439408680277
 30
0.0
 10
104.194632090033
 20
221.5059855499779
 30
0.0
 10
104.5333537615714
 20
221.0244100110956
 30
0.0
 10
105.2158388608723
 20
220.0718031045291
 30
0.0
 10
105.561010469187
 20
219.5986933806435
 30
0.0
 10
106.6068876841679
 20
218.1877872620684
 30
0.0
 10
107.3179153039875
 20
217.2583811001722
 30
0.0
 10
108.0384210409664
 20
216.3366792114855
 30
0.0
  0
SPLINE
  5
1F1
330
1F
100
AcDbEntity
  8
0
  6
Continuous
 62
     7
370
    15
100
AcDbSpline
210
0.0
220
0.0
230
1.0
 70
     8
 71
     3
 72
    14
 73
    10
 74
     0
 42
0.000000001
 43
0.00000001
 40
0.0
 40
0.0
 40
0.0
 40
0.0
 40
0.25
 40
0.25
 40
0.5
 40
0.5
 40
0.75
 40
0.75
 40
1.0
 40
1.0
 40
1.0
 40
1.0
 10
-181.7393268457548
 20
216.3366792114855
 30
0.0
 10
-182.276621364933
 20
215.3065003957575
 30
0.0
 10
-182.8026375162454
 20
214.2682574416167
 30
0.0
 10
-183.8220292978617
 20
212.1684332558105
 30
0.0
 10
-184.3151598222891
 20
211.1066767711531
 30
0.0
 10
-185.2610626255515
 20
208.9543072791191
 30
0.0
 10
-185.7011533151739
 20
207.8925507944615
 30
0.0
 10
-186.5273829206507
 20
205.7927266086553
 30
0.0
 10
-186.9139209794068
 20
204.7544836545146
 30
0.0
 10
-187.2820927691178
 20
203.7243048387865
 30
0.0
  0
LWPOLYLINE
  5
1F5
330
1F
100
AcDbEntity
  8
0
  6
Continuous
 62
     7
370
    15
100
AcDbPolyline
 90
       36
 70
   128
 43
0.0
 10
-191.0878358388
 20
225.0124168914
 10
-189.4316795066
 20
224.0381183129
 10
-187.9701782102
 20
222.7733271752
 10
-186.7503058038
 20
221.2586949062
 10
-185.8112699902
 20
219.5429030332
 10
-185.1832521531
 20
217.6810985189
 10
-184.8864373025
 20
215.7331212921
 10
-184.930365312
 20
213.7615809438
 10
-185.3136242992
 20
211.8298444029
 10
-186.0238960049
 20
209.9999992713
 10
-187.0383517121
 20
208.3308582772
 10
-188.3243859795
 20
206.8760689854
 10
-189.8406646078
 20
205.6823895208
 10
-191.5384531542
 20
204.7881857236
 10
-193.3631832979
 20
204.2221980395
 10
-195.2562067107
 20
204.0026177785
 10
-197.1566800624
 20
204.1365024307
 10
-199.003520576
 20
204.6195488333
 10
-200.7373692776
 20
205.4362314775
 10
-202.3024988433
 20
206.5603015111
 10
-203.6486047213
 20
207.9556303983
 10
-204.7324219608
 20
209.5773711206
 10
-205.5191157842
 20
211.3733995969
 10
-205.9834012047
 20
213.2859899941
 10
-206.1103557067
 20
215.2536700832
 10
-205.8958988681
 20
217.2131970071
 10
-205.3469235083
 20
219.1015899582
 10
-204.4810741469
 20
220.8581544332
 10
-203.3261798949
 20
222.4264330046
 10
-201.9193600037
 20
223.7560199088
 10
-200.3058308223
 20
224.8041811286
 10
-198.537452506
 20
225.5372279
 10
-196.6710621891
 20
225.9315994967
 10
-194.7666471919
 20
225.974620491
 10
-192.8854169795
 20
225.6649081528
 10
-191.0878358388
 20
225.0124168914
  0
SPLINE
  5
1F6
330
1F
100
AcDbEntity
  8
0
  6
Continuous
 62
     7
370
    15
100
AcDbSpline
210
0.0
220
0.0
230
1.0
 70
     8
 71
     3
 72
    16
 73
    12
 74
     0
 42
0.000000001
 43
0.00000001
 40
0.0
 40
0.0
 40
0.0
 40
0.0
 40
0.2499999999999968
 40
0.2499999999999968
 40
0.4999999999999937
 40
0.4999999999999937
 40
0.6249999999999951
 40
0.6249999999999951
 40
0.7499999999999964
 40
0.7499999999999964
 40
1.0
 40
1.0
 40
1.0
 40
1.0
 10
-187.2820927691178
 20
203.7243048387865
 30
0.0
 10
-188.4542158315854
 20
203.6151775921899
 30
0.0
 10
-189.6194074848757
 20
203.5052547750526
 30
0.0
 10
-191.929818726182
 20
203.2831167949703
 30
0.0
 10
-193.0748898397311
 20
203.1708845904817
 30
0.0
 10
-194.7740752125779
 20
203.0004219313539
 30
0.0
 10
-195.3365559666521
 20
202.9433334767278
 30
0.0
 10
-196.4367437515378
 20
202.8304065280539
 30
0.0
 10
-196.9769319597455
 20
202.7743216549145
 30
0.0
 10
-198.571371608288
 20
202.607065547765
 30
0.0
 10
-199.5995998680839
 20
202.4968889353361
 30
0.0
 10
-200.6039325224071
 20
202.3876256272929
 30
0.0
  0
SPLINE
  5
1F7
330
1F
100
AcDbEntity
  8
0
  6
Continuous
 62
     7
370
    15
100
AcDbSpline
210
0.0
220
0.0
230
1.0
 70
     8
 71
     3
 72
    16
 73
    12
 74
     0
 42
0.000000001
 43
0.00000001
 40
0.0
 40
0.0
 40
0.0
 40
0.0
 40
0.2499999999999977
 40
0.2499999999999977
 40
0.4999999999999954
 40
0.4999999999999954
 40
0.6249999999999968
 40
0.6249999999999968
 40
0.749999999999998
 40
0.749999999999998
 40
1.0
 40
1.0
 40
1.0
 40
1.0
 10
-200.6039325224071
 20
202.3876256272929
 30
0.0
 10
-201.3235410409625
 20
203.3081797556316
 30
0.0
 10
-202.0329191828359
 20
204.2354450012071
 30
0.0
 10
-203.4221978025695
 20
206.1093128115212
 30
0.0
 10
-204.1018791403262
 20
207.0560591319565
 30
0.0
 10
-205.0942123304688
 20
208.4940144500062
 30
0.0
 10
-205.4199661734054
 20
208.9755899888886
 30
0.0
 10
-206.0518833084918
 20
209.9281968954552
 30
0.0
 10
-206.3595061255575
 20
210.4013066193407
 30
0.0
 10
-207.2603901002992
 20
211.8122127379158
 30
0.0
 10
-207.831752443673
 20
212.741618899812
 30
0.0
 10
-208.3830063523336
 20
213.6633207884986
 30
0.0
  0
SPLINE
  5
1F8
330
1F
100
AcDbEntity
  8
0
  6
Continuous
 62
     7
370
    15
100
AcDbSpline
210
0.0
220
0.0
230
1.0
 70
     8
 71
     3
 72
    14
 73
    10
 74
     0
 42
0.000000001
 43
0.00000001
 40
0.0
 40
0.0
 40
0.0
 40
0.0
 40
0.25
 40
0.25
 40
0.5
 40
0.5
 40
0.75
 40
0.75
 40
1.0
 40
1.0
 40
1.0
 40
1.0
 10
-208.3830063523336
 20
213.6633207884986
 30
0.0
 10
-208.0148345626226
 20
214.6934996042266
 30
0.0
 10
-207.6282965038666
 20
215.7317425583674
 30
0.0
 10
-206.8020668983897
 20
217.8315667441736
 30
0.0
 10
-206.3619762087675
 20
218.8933232288312
 30
0.0
 10
-205.4160734055048
 20
221.0456927208653
 30
0.0
 10
-204.9229428810776
 20
222.1074492055229
 30
0.0
 10
-203.9035510994611
 20
224.207273391329
 30
0.0
 10
-203.3775349481487
 20
225.2455163454699
 30
0.0
 10
-202.8402404289706
 20
226.2756951611979
 30
0.0
  0
SPLINE
  5
1F9
330
1F
100
AcDbEntity
  8
0
  6
Continuous
 62
     7
370
    15
100
AcDbSpline
210
0.0
220
0.0
230
1.0
 70
     8
 71
     3
 72
    16
 73
    12
 74
     0
 42
0.000000001
 43
0.00000001
 40
0.0
 40
0.0
 40
0.0
 40
0.0
 40
0.2500000000000013
 40
0.2500000000000013
 40
0.5000000000000027
 40
0.5000000000000027
 40
0.6250000000000006
 40
0.6250000000000006
 40
0.7499999999999984
 40
0.7499999999999984
 40
1.0
 40
1.0
 40
1.0
 40
1.0
 10
-202.8402404289706
 20
226.2756951611979
 30
0.0
 10
-201.837158431949
 20
226.3848224077945
 30
0.0
 10
-200.8112871248194
 20
226.4947452249319
 30
0.0
 10
-198.6938797117619
 20
226.7168832050141
 30
0.0
 10
-197.6018554467045
 20
226.8291154095028
 30
0.0
 10
-195.9032529145792
 20
226.9995780686305
 30
0.0
 10
-195.327804331903
 20
227.0566665232566
 30
0.0
 10
-194.1770485828029
 20
227.1695934719305
 30
0.0
 10
-193.5993115833461
 20
227.2256783450698
 30
0.0
 10
-191.8598786945644
 20
227.3929344522193
 30
0.0
 10
-190.6919851583224
 20
227.5031110646481
 30
0.0
 10
-189.5184006756812
 20
227.6123743726914
 30
0.0
  0
SPLINE
  5
1FA
330
1F
100
AcDbEntity
  8
0
  6
Continuous
 62
     7
370
    15
100
AcDbSpline
210
0.0
220
0.0
230
1.0
 70
     8
 71
     3
 72
    16
 73
    12
 74
     0
 42
0.000000001
 43
0.00000001
 40
0.0
 40
0.0
 40
0.0
 40
0.0
 40
0.2500000000000004
 40
0.2500000000000004
 40
0.5000000000000009
 40
0.5000000000000009
 40
0.6249999999999994
 40
0.6249999999999994
 40
0.749999999999998
 40
0.749999999999998
 40
1.0
 40
1.0
 40
1.0
 40
1.0
 10
-189.5184006756812
 20
227.6123743726915
 30
0.0
 10
-188.9678332225718
 20
226.6918202443528
 30
0.0
 10
-188.397775426859
 20
225.7645549987773
 30
0.0
 10
-187.2015006353742
 20
223.890687188463
 30
0.0
 10
-186.5748661461092
 20
222.9439408680278
 30
0.0
 10
-185.583115796688
 20
221.505985549978
 30
0.0
 10
-185.2443941251497
 20
221.0244100110957
 30
0.0
 10
-184.5619090258488
 20
220.0718031045291
 30
0.0
 10
-184.2167374175341
 20
219.5986933806435
 30
0.0
 10
-183.1708602025531
 20
218.1877872620686
 30
0.0
 10
-182.4598325827336
 20
217.2583811001723
 30
0.0
 10
-181.7393268457547
 20
216.3366792114856
 30
0.0
  0
LWPOLYLINE
  5
1FF
330
1F
100
AcDbEntity
  8
0
  6
PHANTOM
 62
     8
370
     0
100
AcDbPolyline
 90
       53
 70
   128
 43
0.0
 10
1896.4409652502
 20
125.0000000942
 10
1896.4398993275
 20
125.0
 10
1894.97727492
 20
125.1775944415
 10
1893.5204228228
 20
125.7096768817
 10
1892.0750925655
 20
126.5941474344
 10
1890.6469882065
 20
127.8275154984
 10
1889.2417458211
 20
129.4049135334
 10
1887.8649112591
 20
131.3201162701
 10
1886.5219182575
 20
133.5655652781
 10
1885.218066996
 20
136.1323987961
 10
1883.95850318
 20
139.0104867048
 10
1882.7481977324
 20
142.1884705063
 10
1881.5919271759
 20
145.6538081502
 10
1880.494254782
 20
149.3928235321
 10
1879.4595125622
 20
153.3907604664
 10
1878.4917841715
 20
157.6318409226
 10
1877.5948887915
 20
162.0993272937
 10
1876.7723660587
 20
166.7755884519
 10
1876.0274620944
 20
171.6421693308
 10
1875.3631166944
 20
176.6798637591
 10
1874.7819517263
 20
181.8687902584
 10
1874.2862607828
 20
187.1884705063
 10
1873.8780001296
 20
192.6179101552
 10
1873.5587809851
 20
198.1356816873
 10
1873.3298631612
 20
203.7200089792
 10
1873.1921500921
 20
209.3488532424
 10
1873.1461852683
 20
215.0
 10
1873.1921500921
 20
220.6511467576
 10
1873.3298631612
 20
226.2799910208
 10
1873.5587809851
 20
231.8643183127
 10
1873.8780001296
 20
237.3820898448
 10
1874.2862607828
 20
242.8115294937
 10
1874.7819517263
 20
248.1312097416
 10
1875.3631166944
 20
253.3201362409
 10
1876.0274620944
 20
258.3578306692
 10
1876.7723660587
 20
263.2244115481
 10
1877.5948887915
 20
267.9006727063
 10
1878.4917841715
 20
272.3681590774
 10
1879.4595125622
 20
276.6092395336
 10
1880.494254782
 20
280.6071764679
 10
1881.5919271759
 20
284.3461918498
 10
1882.7481977324
 20
287.8115294937
 10
1883.95850318
 20
290.9895132952
 10
1885.218066996
 20
293.8676012039
 10
1886.5219182575
 20
296.4344347219
 10
1887.8649112591
 20
298.6798837299
 10
1889.2417458211
 20
300.5950864666
 10
1890.6469882065
 20
302.1724845016
 10
1892.0750925655
 20
303.4058525656
 10
1893.5204228228
 20
304.2903231183
 10
1894.97727492
 20
304.8224055585
 10
1896.4398993275
 20
305.0
 10
1896.4420381974
 20
304.9999996206
  0
SPLINE
  5
200
330
1F
100
AcDbEntity
  8
0
  6
PHANTOM
 62
     8
370
     0
100
AcDbSpline
210
0.0
220
0.0
230
1.0
 70
     8
 71
     3
 72
    14
 73
    10
 74
     0
 42
0.000000001
 43
0.00000001
 40
0.0
 40
0.0
 40
0.0
 40
0.0
 40
0.2500000000000001
 40
0.2500000000000001
 40
0.5000000000000001
 40
0.5000000000000001
 40
0.7500000000000002
 40
0.7500000000000002
 40
1.0
 40
1.0
 40
1.0
 40
1.0
 10
1906.099157590439
 20
135.0000000000002
 30
0.0
 10
1900.60786671112
 20
135.0000000000002
 30
0.0
 10
1895.341070457296
 20
143.4289718236368
 30
0.0
 10
1887.575212420827
 20
173.4339431865158
 30
0.0
 10
1885.393633982238
 20
193.78328128
 30
0.0
 10
1885.393633982238
 20
236.2167187200001
 30
0.0
 10
1887.575212420827
 20
256.5660568134843
 30
0.0
 10
1895.341070457296
 20
286.5710281763635
 30
0.0
 10
1900.60786671112
 20
295.0000000000002
 30
0.0
 10
1906.099157590439
 20
295.0000000000002
 30
0.0
  0
SPLINE
  5
201
330
1F
100
AcDbEntity
  8
0
  6
PHANTOM
 62
     8
370
     0
100
AcDbSpline
210
0.0
220
0.0
230
1.0
 70
     8
 71
     3
 72
    14
 73
    10
 74
     0
 42
0.000000001
 43
0.00000001
 40
0.0
 40
0.0
 40
0.0
 40
0.0
 40
0.25
 40
0.25
 40
0.5
 40
0.5
 40
0.75
 40
0.75
 40
1.0
 40
1.0
 40
1.0
 40
1.0
 10
1906.099157590439
 20
295.0000000000003
 30
0.0
 10
1911.590448469758
 20
295.0000000000003
 30
0.0
 10
1916.857244723582
 20
286.5710281763637
 30
0.0
 10
1924.623102760051
 20
256.5660568134845
 30
0.0
 10
1926.804681198641
 20
236.2167187200002
 30
0.0
 10
1926.804681198641
 20
193.7832812800002
 30
0.0
 10
1924.623102760051
 20
173.4339431865159
 30
0.0
 10
1916.857244723582
 20
143.4289718236367
 30
0.0
 10
1911.590448469758
 20
135.0000000000001
 30
0.0
 10
1906.099157590439
 20
135.0
 30
0.0
  0
LWPOLYLINE
  5
202
330
1F
100
AcDbEntity
  8
0
  6
PHANTOM
 62
     8
370
     0
100
AcDbPolyline
 90
       51
 70
   128
 43
0.0
 10
-1947.9448893029
 20
305.0
 10
-1949.4075137105
 20
304.8224055585
 10
-1950.8643658077
 20
304.2903231183
 10
-1952.309696065
 20
303.4058525656
 10
-1953.737800424
 20
302.1724845016
 10
-1955.1430428094
 20
300.5950864666
 10
-1956.5198773714
 20
298.6798837299
 10
-1957.862870373
 20
296.4344347219
 10
-1959.1667216345
 20
293.8676012039
 10
-1960.4262854505
 20
290.9895132952
 10
-1961.6365908981
 20
287.8115294937
 10
-1962.7928614546
 20
284.3461918498
 10
-1963.8905338485
 20
280.6071764679
 10
-1964.9252760683
 20
276.6092395336
 10
-1965.893004459
 20
272.3681590774
 10
-1966.789899839
 20
267.9006727063
 10
-1967.6124225718
 20
263.2244115481
 10
-1968.3573265361
 20
258.3578306692
 10
-1969.0216719361
 20
253.3201362409
 10
-1969.6028369042
 20
248.1312097416
 10
-1970.0985278477
 20
242.8115294937
 10
-1970.5067885009
 20
237.3820898448
 10
-1970.8260076454
 20
231.8643183127
 10
-1971.0549254693
 20
226.2799910208
 10
-1971.1926385384
 20
220.6511467576
 10
-1971.2386033622
 20
215.0
 10
-1971.1926385384
 20
209.3488532424
 10
-1971.0549254693
 20
203.7200089792
 10
-1970.8260076454
 20
198.1356816873
 10
-1970.5067885009
 20
192.6179101552
 10
-1970.0985278477
 20
187.1884705063
 10
-1969.6028369042
 20
181.8687902584
 10
-1969.0216719361
 20
176.6798637591
 10
-1968.3573265361
 20
171.6421693308
 10
-1967.6124225718
 20
166.7755884519
 10
-1966.789899839
 20
162.0993272937
 10
-1965.893004459
 20
157.6318409226
 10
-1964.9252760683
 20
153.3907604664
 10
-1963.8905338485
 20
149.3928235321
 10
-1962.7928614546
 20
145.6538081502
 10
-1961.6365908981
 20
142.1884705063
 10
-1960.4262854505
 20
139.0104867048
 10
-1959.1667216345
 20
136.1323987961
 10
-1957.862870373
 20
133.5655652781
 10
-1956.5198773714
 20
131.3201162701
 10
-1955.1430428094
 20
129.4049135334
 10
-1953.737800424
 20
127.8275154984
 10
-1952.309696065
 20
126.5941474344
 10
-1950.8643658077
 20
125.7096768817
 10
-1949.4075137105
 20
125.1775944415
 10
-1947.9448893029
 20
125.0
  0
SPLINE
  5
20A
330
1F
100
AcDbEntity
  8
0
  6
PHANTOM
 62
     8
370
     0
100
AcDbSpline
210
0.0
220
0.0
230
1.0
 70
     8
 71
     3
 72
    14
 73
    10
 74
     0
 42
0.000000001
 43
0.00000001
 40
0.0
 40
0.0
 40
0.0
 40
0.0
 40
0.25
 40
0.25
 40
0.4999999999999999
 40
0.4999999999999999
 40
0.75
 40
0.75
 40
0.9999999999999999
 40
0.9999999999999999
 40
0.9999999999999999
 40
0.9999999999999999
 10
39.99999999999989
 20
75.0000000000001
 30
0.0
 10
56.72542792630534
 20
66.07977177263724
 30
0.0
 10
69.99067734295873
 20
51.82292442558725
 30
0.0
 10
85.37758910872535
 20
17.1749145246185
 30
0.0
 10
87.05949291060745
 20
-2.226006535071545
 30
0.0
 10
77.86473211409911
 20
-39.00504972110491
 30
0.0
 10
67.25085414317257
 20
-55.33202533759285
 30
0.0
 10
37.36922145527566
 20
-78.66289912514574
 30
0.0
 10
18.95548498314617
 20
-85.00000000000001
 30
0.0
 10
0.0000000000000416
 20
-85.00000000000001
 30
0.0
  0
SPLINE
  5
20B
330
1F
100
AcDbEntity
  8
0
  6
PHANTOM
 62
     8
370
     0
100
AcDbSpline
210
0.0
220
0.0
230
1.0
 70
     8
 71
     3
 72
    14
 73
    10
 74
     0
 42
0.000000001
 43
0.00000001
 40
0.0
 40
0.0
 40
0.0
 40
0.0
 40
0.25
 40
0.25
 40
0.5
 40
0.5
 40
0.75
 40
0.75
 40
1.0
 40
1.0
 40
1.0
 40
1.0
 10
0.0
 20
-84.99999999999997
 30
0.0
 10
-18.95548498314615
 20
-84.99999999999997
 30
0.0
 10
-37.36922145527559
 20
-78.66289912514569
 30
0.0
 10
-67.25085414317256
 20
-55.3320253375928
 30
0.0
 10
-77.86473211409907
 20
-39.00504972110485
 30
0.0
 10
-87.05949291060737
 20
-2.22600653507149
 30
0.0
 10
-85.37758910872526
 20
17.17491452461856
 30
0.0
 10
-69.99067734295869
 20
51.82292442558728
 30
0.0
 10
-56.72542792630529
 20
66.07977177263727
 30
0.0
 10
-39.99999999999983
 20
75.00000000000013
 30
0.0
  0
SPLINE
  5
20D
330
1F
100
AcDbEntity
  8
0
  6
PHANTOM
 62
     8
370
     0
100
AcDbSpline
210
0.0
220
0.0
230
1.0
 70
     8
 71
     3
 72
    14
 73
    10
 74
     0
 42
0.000000001
 43
0.00000001
 40
0.0
 40
0.0
 40
0.0
 40
0.0
 40
0.25
 40
0.25
 40
0.4999999999999999
 40
0.4999999999999999
 40
0.75
 40
0.75
 40
0.9999999999999999
 40
0.9999999999999999
 40
0.9999999999999999
 40
0.9999999999999999
 10
-39.99999999999986
 20
354.9999999999999
 30
0.0
 10
-56.72542792630528
 20
363.9202282273628
 30
0.0
 10
-69.99067734295868
 20
378.1770755744127
 30
0.0
 10
-85.37758910872525
 20
412.8250854753815
 30
0.0
 10
-87.05949291060736
 20
432.2260065350715
 30
0.0
 10
-77.864732114099
 20
469.0050497211049
 30
0.0
 10
-67.25085414317246
 20
485.3320253375927
 30
0.0
 10
-37.36922145527549
 20
508.6628991251456
 30
0.0
 10
-18.95548498314606
 20
514.9999999999999
 30
0.0
 10
0.0000000000000694
 20
514.9999999999999
 30
0.0
  0
SPLINE
  5
20E
330
1F
100
AcDbEntity
  8
0
  6
PHANTOM
 62
     8
370
     0
100
AcDbSpline
210
0.0
220
0.0
230
1.0
 70
     8
 71
     3
 72
    14
 73
    10
 74
     0
 42
0.000000001
 43
0.00000001
 40
0.0
 40
0.0
 40
0.0
 40
0.0
 40
0.25
 40
0.25
 40
0.5
 40
0.5
 40
0.75
 40
0.75
 40
1.0
 40
1.0
 40
1.0
 40
1.0
 10
0.0
 20
514.9999999999999
 30
0.0
 10
18.95548498314614
 20
514.9999999999999
 30
0.0
 10
37.36922145527558
 20
508.6628991251456
 30
0.0
 10
67.2508541431725
 20
485.3320253375927
 30
0.0
 10
77.86473211409903
 20
469.0050497211048
 30
0.0
 10
87.0594929106073
 20
432.2260065350713
 30
0.0
 10
85.37758910872515
 20
412.8250854753814
 30
0.0
 10
69.99067734295846
 20
378.1770755744127
 30
0.0
 10
56.72542792630511
 20
363.9202282273627
 30
0.0
 10
39.99999999999964
 20
354.9999999999999
 30
0.0
  0
LWPOLYLINE
  5
21B
330
1F
100
AcDbEntity
  8
0
  6
PHANTOM
 62
     8
370
     0
100
AcDbPolyline
 90
       13
 70
   128
 43
0.0
 10
1106.7214879918
 20
304.6006415845
 10
1107.4048488231
 20
303.1942229088
 10
1107.825021932
 20
301.5384409624
 10
1107.8973672581
 20
299.8041266198
 10
1107.619270053
 20
298.0539625201
 10
1107.0007814741
 20
296.3512041539
 10
1106.0642553102
 20
294.7573936451
 10
1104.8435400569
 20
293.3301354579
 10
1103.382755544
 20
292.1210144221
 10
1101.7346983299
 20
291.1737313221
 10
1099.9589334963
 20
290.5225234373
 10
1098.1196418108
 20
290.1909271175
 10
1097.0991106042
 20
290.1496675976
  0
LWPOLYLINE
  5
21E
330
1F
100
AcDbEntity
  8
0
  6
PHANTOM
 62
     8
370
     0
100
AcDbPolyline
 90
       13
 70
   128
 43
0.0
 10
1097.1969232184
 20
139.8508054471
 10
1099.0430995622
 20
139.6842531254
 10
1100.8588496789
 20
139.190615795
 10
1102.5785476283
 20
138.3877347953
 10
1104.1400390458
 20
137.3046283375
 10
1105.4868875632
 20
135.980442711
 10
1106.570414566
 20
134.4630374344
 10
1107.3514585651
 20
132.807255488
 10
1107.8017905954
 20
131.0729411454
 10
1107.9051344841
 20
129.3227770457
 10
1107.6577551136
 20
127.6200186795
 10
1107.0685934191
 20
126.0262081706
 10
1106.7198806405
 20
125.3967432082
  0
LWPOLYLINE
  5
225
330
1F
100
AcDbEntity
  8
0
  6
PHANTOM
 62
     8
370
     0
100
AcDbPolyline
 90
       13
 70
   128
 43
0.0
 10
1464.2487372082
 20
139.8508054471
 10
1466.0949135521
 20
139.6842531254
 10
1467.9106636688
 20
139.190615795
 10
1469.6303616181
 20
138.3877347953
 10
1471.1918530356
 20
137.3046283375
 10
1472.5387015531
 20
135.980442711
 10
1473.6222285559
 20
134.4630374344
 10
1474.403272555
 20
132.807255488
 10
1474.8536045853
 20
131.0729411454
 10
1474.9569484739
 20
129.3227770457
 10
1474.7095691034
 20
127.6200186795
 10
1474.1204074089
 20
126.0262081706
 10
1473.7716946303
 20
125.3967432082
  0
LWPOLYLINE
  5
226
330
1F
100
AcDbEntity
  8
0
  6
PHANTOM
 62
     8
370
     0
100
AcDbPolyline
 90
       13
 70
   128
 43
0.0
 10
1473.7733019816
 20
304.6006415845
 10
1474.456662813
 20
303.1942229088
 10
1474.8768359218
 20
301.5384409624
 10
1474.949181248
 20
299.8041266198
 10
1474.6710840428
 20
298.0539625201
 10
1474.052595464
 20
296.3512041539
 10
1473.1160693
 20
294.7573936451
 10
1471.8953540468
 20
293.3301354579
 10
1470.4345695339
 20
292.1210144221
 10
1468.7865123198
 20
291.1737313221
 10
1467.0107474861
 20
290.5225234373
 10
1465.1714558007
 20
290.1909271175
 10
1464.1509245941
 20
290.1496675976
  0
LWPOLYLINE
  5
22B
330
1F
100
AcDbEntity
  8
0
  6
PHANTOM
 62
     8
370
     0
100
AcDbPolyline
 90
       13
 70
   128
 43
0.0
 10
-1250.1375281536
 20
304.6006415845
 10
-1249.4541673222
 20
303.1942229088
 10
-1249.0339942133
 20
301.5384409624
 10
-1248.9616488872
 20
299.8041266198
 10
-1249.2397460923
 20
298.0539625201
 10
-1249.8582346712
 20
296.3512041539
 10
-1250.7947608351
 20
294.7573936451
 10
-1252.0154760884
 20
293.3301354579
 10
-1253.4762606013
 20
292.1210144221
 10
-1255.1243178154
 20
291.1737313221
 10
-1256.9000826491
 20
290.5225234373
 10
-1258.7393743345
 20
290.1909271175
 10
-1259.7599055411
 20
290.1496675976
  0
LWPOLYLINE
  5
22E
330
1F
100
AcDbEntity
  8
0
  6
PHANTOM
 62
     8
370
     0
100
AcDbPolyline
 90
       13
 70
   128
 43
0.0
 10
-1259.6620929269
 20
139.8508054471
 10
-1257.8159165831
 20
139.6842531254
 10
-1256.0001664664
 20
139.190615795
 10
-1254.2804685171
 20
138.3877347953
 10
-1252.7189770995
 20
137.3046283375
 10
-1251.3721285821
 20
135.980442711
 10
-1250.2886015793
 20
134.4630374344
 10
-1249.5075575802
 20
132.807255488
 10
-1249.0572255499
 20
131.0729411454
 10
-1248.9538816613
 20
129.3227770457
 10
-1249.2012610317
 20
127.6200186795
 10
-1249.7904227263
 20
126.0262081706
 10
-1250.1391355049
 20
125.3967432082
  0
LWPOLYLINE
  5
233
330
1F
100
AcDbEntity
  8
0
  6
PHANTOM
 62
     8
370
     0
100
AcDbPolyline
 90
       13
 70
   128
 43
0.0
 10
-1617.1893421434
 20
304.6006415845
 10
-1616.5059813121
 20
303.1942229088
 10
-1616.0858082032
 20
301.5384409624
 10
-1616.013462877
 20
299.8041266198
 10
-1616.2915600822
 20
298.0539625201
 10
-1616.9100486611
 20
296.3512041539
 10
-1617.846574825
 20
294.7573936451
 10
-1619.0672900783
 20
293.3301354579
 10
-1620.5280745911
 20
292.1210144221
 10
-1622.1761318053
 20
291.1737313221
 10
-1623.9518966389
 20
290.5225234373
 10
-1625.7911883243
 20
290.1909271175
 10
-1626.8117195309
 20
290.1496675976
  0
LWPOLYLINE
  5
236
330
1F
100
AcDbEntity
  8
0
  6
PHANTOM
 62
     8
370
     0
100
AcDbPolyline
 90
       13
 70
   128
 43
0.0
 10
-1626.7139069168
 20
139.8508054471
 10
-1624.8677305729
 20
139.6842531254
 10
-1623.0519804563
 20
139.190615795
 10
-1621.3322825069
 20
138.3877347953
 10
-1619.7707910894
 20
137.3046283375
 10
-1618.4239425719
 20
135.980442711
 10
-1617.3404155692
 20
134.4630374344
 10
-1616.5593715701
 20
132.807255488
 10
-1616.1090395397
 20
131.0729411454
 10
-1616.0056956511
 20
129.3227770457
 10
-1616.2530750216
 20
127.6200186795
 10
-1616.8422367161
 20
126.0262081706
 10
-1617.1909494947
 20
125.3967432082
  0
LINE
  5
23B
330
1F
100
AcDbEntity
  8
0
  6
Continuous
 62
     7
370
    15
100
AcDbLine
 10
-1947.9448893029
 20
125.0
 30
0.0
 11
-1641.9873917866
 21
125.0
 31
0.0
  0
LINE
  5
23C
330
1F
100
AcDbEntity
  8
0
  6
Continuous
 62
     7
370
    15
100
AcDbLine
 10
-1617.47863917
 20
125.0
 30
0.0
 11
-1274.9355777967
 21
125.0
 31
0.0
  0
LINE
  5
23D
330
1F
100
AcDbEntity
  8
0
  6
Continuous
 62
     7
370
    15
100
AcDbLine
 10
-1250.4268251802
 20
125.0
 30
0.0
 11
1081.9234383486
 21
125.0
 31
0.0
  0
LINE
  5
23E
330
1F
100
AcDbEntity
  8
0
  6
Continuous
 62
     7
370
    15
100
AcDbLine
 10
1106.4321909651
 20
125.0
 30
0.0
 11
1448.9752523384
 21
125.0
 31
0.0
  0
LINE
  5
23F
330
1F
100
AcDbEntity
  8
0
  6
Continuous
 62
     7
370
    15
100
AcDbLine
 10
1473.484004955
 20
125.0
 30
0.0
 11
1896.4398993275
 21
125.0
 31
0.0
  0
LINE
  5
240
330
1F
100
AcDbEntity
  8
0
  6
Continuous
 62
     7
370
    15
100
AcDbLine
 10
1896.4398993275
 20
305.0
 30
0.0
 11
1473.4961934249
 21
305.0
 31
0.0
  0
LINE
  5
241
330
1F
100
AcDbEntity
  8
0
  6
Continuous
 62
     7
370
    15
100
AcDbLine
 10
1448.9874408083
 20
305.0
 30
0.0
 11
1106.444379435
 21
305.0
 31
0.0
  0
LINE
  5
242
330
1F
100
AcDbEntity
  8
0
  6
Continuous
 62
     7
370
    15
100
AcDbLine
 10
1081.9356268184
 20
305.0
 30
0.0
 11
-1250.4146367103
 21
305.0
 31
0.0
  0
LINE
  5
243
330
1F
100
AcDbEntity
  8
0
  6
Continuous
 62
     7
370
    15
100
AcDbLine
 10
-1274.9233893269
 20
305.0
 30
0.0
 11
-1617.4664507002
 21
305.0
 31
0.0
  0
LINE
  5
244
330
1F
100
AcDbEntity
  8
0
  6
Continuous
 62
     7
370
    15
100
AcDbLine
 10
-1641.9752033167
 20
305.0
 30
0.0
 11
-1947.9448893029
 21
305.0
 31
0.0
  0
LINE
  5
245
330
1F
100
AcDbEntity
  8
0
  6
Continuous
 62
     7
370
    15
100
AcDbLine
 10
-17.0
 20
332.0
 30
0.0
 11
-17.0
 21
305.0
 31
0.0
  0
LINE
  5
246
330
1F
100
AcDbEntity
  8
0
  6
Continuous
 62
     7
370
    15
100
AcDbLine
 10
-17.0
 20
125.0
 30
0.0
 11
-17.0
 21
98.0
 31
0.0
  0
LINE
  5
247
330
1F
100
AcDbEntity
  8
0
  6
Continuous
 62
     7
370
    15
100
AcDbLine
 10
17.0
 20
98.0
 30
0.0
 11
17.0
 21
125.0
 31
0.0
  0
LINE
  5
248
330
1F
100
AcDbEntity
  8
0
  6
Continuous
 62
     7
370
    15
100
AcDbLine
 10
17.0
 20
305.0
 30
0.0
 11
17.0
 21
332.0
 31
0.0
  0
LINE
  5
249
330
1F
100
AcDbEntity
  8
0
  6
Continuous
 62
     7
370
    15
100
AcDbLine
 10
-334.0772813963
 20
190.0
 30
0.0
 11
-333.300824261
 21
190.0
 31
0.0
  0
LINE
  5
24A
330
1F
100
AcDbEntity
  8
0
  6
Continuous
 62
     7
370
    15
100
AcDbLine
 10
-333.300824261
 20
240.0
 30
0.0
 11
-334.0772813963
 21
240.0
 31
0.0
  0
LINE
  5
24B
330
1F
100
AcDbEntity
  8
0
  6
Continuous
 62
     7
370
    15
100
AcDbLine
 10
255.13747264
 20
190.0
 30
0.0
 11
255.9139297754
 21
190.0
 31
0.0
  0
LINE
  5
24C
330
1F
100
AcDbEntity
  8
0
  6
Continuous
 62
     7
370
    15
100
AcDbLine
 10
255.9139297754
 20
240.0
 30
0.0
 11
255.13747264
 21
240.0
 31
0.0
  0
LINE
  5
24D
330
1F
100
AcDbEntity
  8
0
  6
Continuous
 62
     7
370
    15
100
AcDbLine
 10
105.4189695652
 20
190.0
 30
0.0
 11
106.1954267006
 21
190.0
 31
0.0
  0
LINE
  5
24E
330
1F
100
AcDbEntity
  8
0
  6
Continuous
 62
     7
370
    15
100
AcDbLine
 10
106.1954267006
 20
240.0
 30
0.0
 11
105.4189695652
 21
240.0
 31
0.0
  0
LINE
  5
24F
330
1F
100
AcDbEntity
  8
0
  6
Continuous
 62
     7
370
    15
100
AcDbLine
 10
-184.3587783215
 20
190.0
 30
0.0
 11
-183.5823211862
 21
190.0
 31
0.0
  0
LINE
  5
250
330
1F
100
AcDbEntity
  8
0
  6
Continuous
 62
     7
370
    15
100
AcDbLine
 10
-183.5823211862
 20
240.0
 30
0.0
 11
-184.3587783215
 21
240.0
 31
0.0
  0
LINE
  5
251
330
1F
100
AcDbEntity
  8
0
  6
Continuous
 62
     7
370
    15
100
AcDbLine
 10
1522.6903901554
 20
169.325
 30
0.0
 11
1522.9126300787
 21
169.325
 31
0.0
  0
LINE
  5
252
330
1F
100
AcDbEntity
  8
0
  6
Continuous
 62
     7
370
    15
100
AcDbLine
 10
1522.9126300787
 20
192.675
 30
0.0
 11
1522.6903901554
 21
192.675
 31
0.0
  0
LINE
  5
253
330
1F
100
AcDbEntity
  8
0
  6
Continuous
 62
     7
370
    15
100
AcDbLine
 10
1474.3940988409
 20
237.325
 30
0.0
 11
1474.6163387643
 21
237.325
 31
0.0
  0
LINE
  5
254
330
1F
100
AcDbEntity
  8
0
  6
Continuous
 62
     7
370
    15
100
AcDbLine
 10
1474.6163387643
 20
260.675
 30
0.0
 11
1474.3940988409
 21
260.675
 31
0.0
  0
LINE
  5
255
330
1F
100
AcDbEntity
  8
0
  6
Continuous
 62
     7
370
    15
100
AcDbLine
 10
1155.6385761655
 20
169.325
 30
0.0
 11
1155.8608160889
 21
169.325
 31
0.0
  0
LINE
  5
256
330
1F
100
AcDbEntity
  8
0
  6
Continuous
 62
     7
370
    15
100
AcDbLine
 10
1155.8608160889
 20
192.675
 30
0.0
 11
1155.6385761655
 21
192.675
 31
0.0
  0
LINE
  5
257
330
1F
100
AcDbEntity
  8
0
  6
Continuous
 62
     7
370
    15
100
AcDbLine
 10
1107.3422848511
 20
237.325
 30
0.0
 11
1107.5645247744
 21
237.325
 31
0.0
  0
LINE
  5
258
330
1F
100
AcDbEntity
  8
0
  6
Continuous
 62
     7
370
    15
100
AcDbLine
 10
1107.5645247744
 20
260.675
 30
0.0
 11
1107.3422848511
 21
260.675
 31
0.0
  0
LINE
  5
259
330
1F
100
AcDbEntity
  8
0
  6
Continuous
 62
     7
370
    15
100
AcDbLine
 10
-1249.5167312943
 20
237.325
 30
0.0
 11
-1249.2944913709
 21
237.325
 31
0.0
  0
LINE
  5
25A
330
1F
100
AcDbEntity
  8
0
  6
Continuous
 62
     7
370
    15
100
AcDbLine
 10
-1249.2944913709
 20
260.675
 30
0.0
 11
-1249.5167312943
 21
260.675
 31
0.0
  0
LINE
  5
25B
330
1F
100
AcDbEntity
  8
0
  6
Continuous
 62
     7
370
    15
100
AcDbLine
 10
-1201.2204399798
 20
169.325
 30
0.0
 11
-1200.9982000564
 21
169.325
 31
0.0
  0
LINE
  5
25C
330
1F
100
AcDbEntity
  8
0
  6
Continuous
 62
     7
370
    15
100
AcDbLine
 10
-1200.9982000564
 20
192.675
 30
0.0
 11
-1201.2204399798
 21
192.675
 31
0.0
  0
LINE
  5
25D
330
1F
100
AcDbEntity
  8
0
  6
Continuous
 62
     7
370
    15
100
AcDbLine
 10
-1616.5685452841
 20
237.325
 30
0.0
 11
-1616.3463053607
 21
237.325
 31
0.0
  0
LINE
  5
25E
330
1F
100
AcDbEntity
  8
0
  6
Continuous
 62
     7
370
    15
100
AcDbLine
 10
-1616.3463053607
 20
260.675
 30
0.0
 11
-1616.5685452841
 21
260.675
 31
0.0
  0
LINE
  5
25F
330
1F
100
AcDbEntity
  8
0
  6
Continuous
 62
     7
370
    15
100
AcDbLine
 10
-1568.2722539697
 20
169.325
 30
0.0
 11
-1568.0500140463
 21
169.325
 31
0.0
  0
LINE
  5
260
330
1F
100
AcDbEntity
  8
0
  6
Continuous
 62
     7
370
    15
100
AcDbLine
 10
-1568.0500140463
 20
192.675
 30
0.0
 11
-1568.2722539697
 21
192.675
 31
0.0
  0
LINE
  5
261
330
1F
100
AcDbEntity
  8
0
  6
Continuous
 62
     7
370
    15
100
AcDbLine
 10
-29.5
 20
346.0
 30
0.0
 11
-29.5
 21
338.0
 31
0.0
  0
LINE
  5
262
330
1F
100
AcDbEntity
  8
0
  6
Continuous
 62
     7
370
    15
100
AcDbLine
 10
29.5
 20
338.0
 30
0.0
 11
29.5
 21
346.0
 31
0.0
  0
LINE
  5
263
330
1F
100
AcDbEntity
  8
0
  6
Continuous
 62
     7
370
    15
100
AcDbLine
 10
-22.1547005384
 20
335.0
 30
0.0
 11
-21.2886751346
 21
333.5
 31
0.0
  0
LINE
  5
264
330
1F
100
AcDbEntity
  8
0
  6
Continuous
 62
     7
370
    15
100
AcDbLine
 10
21.2886751346
 20
333.5
 30
0.0
 11
22.1547005384
 21
335.0
 31
0.0
  0
LINE
  5
265
330
1F
100
AcDbEntity
  8
0
  6
Continuous
 62
     7
370
    15
100
AcDbLine
 10
29.5
 20
84.0
 30
0.0
 11
29.5
 21
92.0
 31
0.0
  0
LINE
  5
266
330
1F
100
AcDbEntity
  8
0
  6
Continuous
 62
     7
370
    15
100
AcDbLine
 10
-29.5
 20
92.0
 30
0.0
 11
-29.5
 21
84.0
 31
0.0
  0
LINE
  5
267
330
1F
100
AcDbEntity
  8
0
  6
Continuous
 62
     7
370
    15
100
AcDbLine
 10
22.1547005384
 20
95.0
 30
0.0
 11
21.2886751346
 21
96.5
 31
0.0
  0
LINE
  5
268
330
1F
100
AcDbEntity
  8
0
  6
Continuous
 62
     7
370
    15
100
AcDbLine
 10
-21.2886751346
 20
96.5
 30
0.0
 11
-22.1547005384
 21
95.0
 31
0.0
  0
LINE
  5
269
330
1F
100
AcDbEntity
  8
0
  6
Continuous
 62
     7
370
    15
100
AcDbLine
 10
-342.6183098847
 20
190.0
 30
0.0
 11
-341.8418527494
 21
190.0
 31
0.0
  0
LINE
  5
26A
330
1F
100
AcDbEntity
  8
0
  6
Continuous
 62
     7
370
    15
100
AcDbLine
 10
-341.8418527494
 20
240.0
 30
0.0
 11
-342.6183098847
 21
240.0
 31
0.0
  0
LINE
  5
26B
330
1F
100
AcDbEntity
  8
0
  6
Continuous
 62
     7
370
    15
100
AcDbLine
 10
246.5964441517
 20
190.0
 30
0.0
 11
247.372901287
 21
190.0
 31
0.0
  0
LINE
  5
26C
330
1F
100
AcDbEntity
  8
0
  6
Continuous
 62
     7
370
    15
100
AcDbLine
 10
247.372901287
 20
240.0
 30
0.0
 11
246.5964441517
 21
240.0
 31
0.0
  0
LINE
  5
26D
330
1F
100
AcDbEntity
  8
0
  6
Continuous
 62
     7
370
    15
100
AcDbLine
 10
96.8779410769
 20
190.0
 30
0.0
 11
97.6543982122
 21
190.0
 31
0.0
  0
LINE
  5
26E
330
1F
100
AcDbEntity
  8
0
  6
Continuous
 62
     7
370
    15
100
AcDbLine
 10
97.6543982122
 20
240.0
 30
0.0
 11
96.8779410769
 21
240.0
 31
0.0
  0
LINE
  5
26F
330
1F
100
AcDbEntity
  8
0
  6
Continuous
 62
     7
370
    15
100
AcDbLine
 10
-192.8998068099
 20
190.0
 30
0.0
 11
-192.1233496746
 21
190.0
 31
0.0
  0
LINE
  5
270
330
1F
100
AcDbEntity
  8
0
  6
Continuous
 62
     7
370
    15
100
AcDbLine
 10
-192.1233496746
 20
240.0
 30
0.0
 11
-192.8998068099
 21
240.0
 31
0.0
  0
LINE
  5
271
330
1F
100
AcDbEntity
  8
0
  6
Continuous
 62
     7
370
    15
100
AcDbLine
 10
1093.8311470877
 20
167.5
 30
0.0
 11
1093.8311470877
 21
262.5
 31
0.0
  0
LINE
  5
272
330
1F
100
AcDbEntity
  8
0
  6
Continuous
 62
     7
370
    15
100
AcDbLine
 10
1073.8311470877
 20
262.5
 30
0.0
 11
1073.8311470877
 21
167.5
 31
0.0
  0
LINE
  5
273
330
1F
100
AcDbEntity
  8
0
  6
Continuous
 62
     7
370
    15
100
AcDbLine
 10
1123.7642151204
 20
191.3149644156
 30
0.0
 11
1095.6824545292
 21
145.6323886023
 31
0.0
  0
LINE
  5
274
330
1F
100
AcDbEntity
  8
0
  6
Continuous
 62
     7
370
    15
100
AcDbLine
 10
1106.7203900542
 20
125.3975717933
 30
0.0
 11
1139.6611257429
 21
178.98458428
 31
0.0
  0
LINE
  5
275
330
1F
100
AcDbEntity
  8
0
  6
Continuous
 62
     7
370
    15
100
AcDbLine
 10
1139.6611257429
 20
251.01541572
 30
0.0
 11
1106.7203900542
 21
304.6024282067
 31
0.0
  0
LINE
  5
276
330
1F
100
AcDbEntity
  8
0
  6
Continuous
 62
     7
370
    15
100
AcDbLine
 10
1095.6821424272
 20
284.368119116
 30
0.0
 11
1123.7642151204
 21
238.6850355844
 31
0.0
  0
LINE
  5
277
330
1F
100
AcDbEntity
  8
0
  6
Continuous
 62
     7
370
    15
100
AcDbLine
 10
1460.8829610775
 20
167.5
 30
0.0
 11
1460.8829610775
 21
262.5
 31
0.0
  0
LINE
  5
278
330
1F
100
AcDbEntity
  8
0
  6
Continuous
 62
     7
370
    15
100
AcDbLine
 10
1440.8829610775
 20
262.5
 30
0.0
 11
1440.8829610775
 21
167.5
 31
0.0
  0
LINE
  5
279
330
1F
100
AcDbEntity
  8
0
  6
Continuous
 62
     7
370
    15
100
AcDbLine
 10
1490.8160291102
 20
191.3149644156
 30
0.0
 11
1462.734268519
 21
145.6323886023
 31
0.0
  0
LINE
  5
27A
330
1F
100
AcDbEntity
  8
0
  6
Continuous
 62
     7
370
    15
100
AcDbLine
 10
1473.772204044
 20
125.3975717933
 30
0.0
 11
1506.7129397328
 21
178.98458428
 31
0.0
  0
LINE
  5
27B
330
1F
100
AcDbEntity
  8
0
  6
Continuous
 62
     7
370
    15
100
AcDbLine
 10
1506.7129397328
 20
251.01541572
 30
0.0
 11
1473.772204044
 21
304.6024282067
 31
0.0
  0
LINE
  5
27C
330
1F
100
AcDbEntity
  8
0
  6
Continuous
 62
     7
370
    15
100
AcDbLine
 10
1462.733956417
 20
284.368119116
 30
0.0
 11
1490.8160291102
 21
238.6850355844
 31
0.0
  0
LINE
  5
27D
330
1F
100
AcDbEntity
  8
0
  6
Continuous
 62
     7
370
    15
100
AcDbLine
 10
-1263.0278690576
 20
167.5
 30
0.0
 11
-1263.0278690576
 21
262.5
 31
0.0
  0
LINE
  5
27E
330
1F
100
AcDbEntity
  8
0
  6
Continuous
 62
     7
370
    15
100
AcDbLine
 10
-1283.0278690576
 20
262.5
 30
0.0
 11
-1283.0278690576
 21
167.5
 31
0.0
  0
LINE
  5
27F
330
1F
100
AcDbEntity
  8
0
  6
Continuous
 62
     7
370
    15
100
AcDbLine
 10
-1217.1978904024
 20
251.01541572
 30
0.0
 11
-1250.1386260912
 21
304.6024282067
 31
0.0
  0
LINE
  5
280
330
1F
100
AcDbEntity
  8
0
  6
Continuous
 62
     7
370
    15
100
AcDbLine
 10
-1261.1768737182
 20
284.368119116
 30
0.0
 11
-1233.0948010249
 21
238.6850355844
 31
0.0
  0
LINE
  5
281
330
1F
100
AcDbEntity
  8
0
  6
Continuous
 62
     7
370
    15
100
AcDbLine
 10
-1233.0948010249
 20
191.3149644156
 30
0.0
 11
-1261.1765616162
 21
145.6323886023
 31
0.0
  0
LINE
  5
282
330
1F
100
AcDbEntity
  8
0
  6
Continuous
 62
     7
370
    15
100
AcDbLine
 10
-1250.1386260912
 20
125.3975717933
 30
0.0
 11
-1217.1978904024
 21
178.98458428
 31
0.0
  0
LINE
  5
283
330
1F
100
AcDbEntity
  8
0
  6
Continuous
 62
     7
370
    15
100
AcDbLine
 10
-1630.0796830475
 20
167.5
 30
0.0
 11
-1630.0796830475
 21
262.5
 31
0.0
  0
LINE
  5
284
330
1F
100
AcDbEntity
  8
0
  6
Continuous
 62
     7
370
    15
100
AcDbLine
 10
-1650.0796830475
 20
262.5
 30
0.0
 11
-1650.0796830475
 21
167.5
 31
0.0
  0
LINE
  5
285
330
1F
100
AcDbEntity
  8
0
  6
Continuous
 62
     7
370
    15
100
AcDbLine
 10
-1584.2497043922
 20
251.01541572
 30
0.0
 11
-1617.190440081
 21
304.6024282067
 31
0.0
  0
LINE
  5
286
330
1F
100
AcDbEntity
  8
0
  6
Continuous
 62
     7
370
    15
100
AcDbLine
 10
-1628.228687708
 20
284.368119116
 30
0.0
 11
-1600.1466150148
 21
238.6850355844
 31
0.0
  0
LINE
  5
287
330
1F
100
AcDbEntity
  8
0
  6
Continuous
 62
     7
370
    15
100
AcDbLine
 10
-1600.1466150148
 20
191.3149644156
 30
0.0
 11
-1628.228375606
 21
145.6323886023
 31
0.0
  0
LINE
  5
288
330
1F
100
AcDbEntity
  8
0
  6
Continuous
 62
     7
370
    15
100
AcDbLine
 10
-1617.190440081
 20
125.3975717933
 30
0.0
 11
-1584.2497043922
 21
178.98458428
 31
0.0
  0
LINE
  5
289
330
1F
100
AcDbEntity
  8
0
  6
Continuous
 62
     7
370
    15
100
AcDbLine
 10
12.132838359
 20
525.3459554685
 30
0.0
 11
11.0
 21
526.0
 31
0.0
  0
LINE
  5
28A
330
1F
100
AcDbEntity
  8
0
  6
Continuous
 62
     7
370
    15
100
AcDbLine
 10
-11.0
 20
526.0
 30
0.0
 11
-12.1328383589
 21
525.3459554685
 31
0.0
  0
LINE
  5
28B
330
1F
100
AcDbEntity
  8
0
  6
Continuous
 62
     7
370
    15
100
AcDbLine
 10
-12.1339015548
 20
-95.3453416321
 30
0.0
 11
-11.0
 21
-96.0
 31
0.0
  0
LINE
  5
28C
330
1F
100
AcDbEntity
  8
0
  6
Continuous
 62
     7
370
    15
100
AcDbLine
 10
11.0
 20
-96.0
 30
0.0
 11
12.1339015549
 21
-95.3453416321
 31
0.0
  0
LINE
  5
28D
330
1F
100
AcDbEntity
  8
0
  6
Continuous
 62
     7
370
    15
100
AcDbLine
 10
1460.9095363669
 20
264.7493718553
 30
0.0
 11
1474.7938929216
 21
264.7493718553
 31
0.0
  0
LINE
  5
28E
330
1F
100
AcDbEntity
  8
0
  6
Continuous
 62
     7
370
    15
100
AcDbLine
 10
1498.2704720896
 20
264.7493718553
 30
0.0
 11
1541.3692463094
 21
264.7493718553
 31
0.0
  0
LINE
  5
28F
330
1F
100
AcDbEntity
  8
0
  6
Continuous
 62
     7
370
    15
100
AcDbLine
 10
1541.3692463094
 20
165.2506281447
 30
0.0
 11
1498.2704720896
 21
165.2506281447
 31
0.0
  0
LINE
  5
290
330
1F
100
AcDbEntity
  8
0
  6
Continuous
 62
     7
370
    15
100
AcDbLine
 10
1474.7938929216
 20
165.2506281447
 30
0.0
 11
1460.9025646247
 21
165.2506281447
 31
0.0
  0
LINE
  5
291
330
1F
100
AcDbEntity
  8
0
  6
Continuous
 62
     7
370
    15
100
AcDbLine
 10
1093.857722377
 20
264.7493718553
 30
0.0
 11
1107.7420789317
 21
264.7493718553
 31
0.0
  0
LINE
  5
292
330
1F
100
AcDbEntity
  8
0
  6
Continuous
 62
     7
370
    15
100
AcDbLine
 10
1131.2186580997
 20
264.7493718553
 30
0.0
 11
1174.3174323196
 21
264.7493718553
 31
0.0
  0
LINE
  5
293
330
1F
100
AcDbEntity
  8
0
  6
Continuous
 62
     7
370
    15
100
AcDbLine
 10
1174.3174323196
 20
165.2506281447
 30
0.0
 11
1131.2186580997
 21
165.2506281447
 31
0.0
  0
LINE
  5
294
330
1F
100
AcDbEntity
  8
0
  6
Continuous
 62
     7
370
    15
100
AcDbLine
 10
1107.7420789317
 20
165.2506281447
 30
0.0
 11
1093.8507506349
 21
165.2506281447
 31
0.0
  0
LINE
  5
295
330
1F
100
AcDbEntity
  8
0
  6
Continuous
 62
     7
370
    15
100
AcDbLine
 10
-1263.0012937683
 20
264.7493718553
 30
0.0
 11
-1249.1169372136
 21
264.7493718553
 31
0.0
  0
LINE
  5
296
330
1F
100
AcDbEntity
  8
0
  6
Continuous
 62
     7
370
    15
100
AcDbLine
 10
-1225.6403580456
 20
264.7493718553
 30
0.0
 11
-1182.5415838258
 21
264.7493718553
 31
0.0
  0
LINE
  5
297
330
1F
100
AcDbEntity
  8
0
  6
Continuous
 62
     7
370
    15
100
AcDbLine
 10
-1182.5415838258
 20
165.2506281447
 30
0.0
 11
-1225.6403580456
 21
165.2506281447
 31
0.0
  0
LINE
  5
298
330
1F
100
AcDbEntity
  8
0
  6
Continuous
 62
     7
370
    15
100
AcDbLine
 10
-1249.1169372136
 20
165.2506281447
 30
0.0
 11
-1263.0082655105
 21
165.2506281447
 31
0.0
  0
LINE
  5
299
330
1F
100
AcDbEntity
  8
0
  6
Continuous
 62
     7
370
    15
100
AcDbLine
 10
-1630.0531077582
 20
264.7493718553
 30
0.0
 11
-1616.1687512035
 21
264.7493718553
 31
0.0
  0
LINE
  5
29A
330
1F
100
AcDbEntity
  8
0
  6
Continuous
 62
     7
370
    15
100
AcDbLine
 10
-1592.6921720355
 20
264.7493718553
 30
0.0
 11
-1549.5933978156
 21
264.7493718553
 31
0.0
  0
LINE
  5
29B
330
1F
100
AcDbEntity
  8
0
  6
Continuous
 62
     7
370
    15
100
AcDbLine
 10
-1549.5933978156
 20
165.2506281447
 30
0.0
 11
-1592.6921720355
 21
165.2506281447
 31
0.0
  0
LINE
  5
29C
330
1F
100
AcDbEntity
  8
0
  6
Continuous
 62
     7
370
    15
100
AcDbLine
 10
-1616.1687512035
 20
165.2506281447
 30
0.0
 11
-1630.0600795003
 21
165.2506281447
 31
0.0
  0
LINE
  5
29D
330
1F
100
AcDbEntity
  8
0
  6
Continuous
 62
     7
370
    15
100
AcDbLine
 10
-42.5
 20
350.0
 30
0.0
 11
-42.5
 21
346.0
 31
0.0
  0
LINE
  5
29E
330
1F
100
AcDbEntity
  8
0
  6
Continuous
 62
     7
370
    15
100
AcDbLine
 10
-42.5
 20
346.0
 30
0.0
 11
42.5
 21
346.0
 31
0.0
  0
LINE
  5
29F
330
1F
100
AcDbEntity
  8
0
  6
Continuous
 62
     7
370
    15
100
AcDbLine
 10
42.5
 20
350.0
 30
0.0
 11
42.5
 21
346.0
 31
0.0
  0
LINE
  5
2A0
330
1F
100
AcDbEntity
  8
0
  6
Continuous
 62
     7
370
    15
100
AcDbLine
 10
-42.5
 20
350.0
 30
0.0
 11
42.5
 21
350.0
 31
0.0
  0
LINE
  5
2A1
330
1F
100
AcDbEntity
  8
0
  6
Continuous
 62
     7
370
    15
100
AcDbLine
 10
-42.5
 20
80.0
 30
0.0
 11
-42.5
 21
84.0
 31
0.0
  0
LINE
  5
2A2
330
1F
100
AcDbEntity
  8
0
  6
Continuous
 62
     7
370
    15
100
AcDbLine
 10
42.5
 20
84.0
 30
0.0
 11
-42.5
 21
84.0
 31
0.0
  0
LINE
  5
2A3
330
1F
100
AcDbEntity
  8
0
  6
Continuous
 62
     7
370
    15
100
AcDbLine
 10
42.5
 20
80.0
 30
0.0
 11
42.5
 21
84.0
 31
0.0
  0
LINE
  5
2A4
330
1F
100
AcDbEntity
  8
0
  6
Continuous
 62
     7
370
    15
100
AcDbLine
 10
42.5
 20
80.0
 30
0.0
 11
-42.5
 21
80.0
 31
0.0
  0
LINE
  5
2A5
330
1F
100
AcDbEntity
  8
0
  6
Continuous
 62
     7
370
    15
100
AcDbLine
 10
1904.9201584152
 20
127.5
 30
0.0
 11
1908.262244314
 21
127.5
 31
0.0
  0
LINE
  5
2A6
330
1F
100
AcDbEntity
  8
0
  6
Continuous
 62
     7
370
    15
100
AcDbLine
 10
1908.2623363349
 20
302.5
 30
0.0
 11
1904.9324211963
 21
302.5
 31
0.0
  0
LINE
  5
2A7
330
1F
100
AcDbEntity
  8
0
  6
Continuous
 62
     7
370
    15
100
AcDbLine
 10
2000.0
 20
2026.0
 30
0.0
 11
-2000.0
 21
2026.0
 31
0.0
  0
LINE
  5
2A8
330
1F
100
AcDbEntity
  8
0
  6
Continuous
 62
     7
370
    15
100
AcDbLine
 10
3500.0
 20
-96.0
 30
0.0
 11
3500.0
 21
526.0
 31
0.0
  0
LINE
  5
2A9
330
1F
100
AcDbEntity
  8
0
  6
Continuous
 62
     7
370
    15
100
AcDbLine
 10
-3500.0
 20
526.0
 30
0.0
 11
-3500.0
 21
-96.0
 31
0.0
  0
LINE
  5
2AA
330
1F
100
AcDbEntity
  8
0
  6
Continuous
 62
     7
370
    15
100
AcDbLine
 10
-2000.0
 20
-1596.0
 30
0.0
 11
2000.0
 21
-1596.0
 31
0.0
  0
LINE
  5
2AB
330
1F
100
AcDbEntity
  8
0
  6
Continuous
 62
     7
370
    15
100
AcDbLine
 10
1162.2433594909
 20
166.0
 30
0.0
 11
1131.6793081542
 21
166.0
 31
0.0
  0
LINE
  5
2AC
330
1F
100
AcDbEntity
  8
0
  6
Continuous
 62
     7
370
    15
100
AcDbLine
 10
1170.3497034832
 20
254.0
 30
0.0
 11
1170.3497034832
 21
176.0
 31
0.0
  0
LINE
  5
2AD
330
1F
100
AcDbEntity
  8
0
  6
Continuous
 62
     7
370
    15
100
AcDbLine
 10
1108.2027289862
 20
166.0
 30
0.0
 11
1102.734895643
 21
166.0
 31
0.0
  0
LINE
  5
2AE
330
1F
100
AcDbEntity
  8
0
  6
Continuous
 62
     7
370
    15
100
AcDbLine
 10
1102.734895643
 20
264.0
 30
0.0
 11
1108.2027289862
 21
264.0
 31
0.0
  0
LINE
  5
2AF
330
1F
100
AcDbEntity
  8
0
  6
Continuous
 62
     7
370
    15
100
AcDbLine
 10
1131.6793081542
 20
264.0
 30
0.0
 11
1162.2433594909
 21
264.0
 31
0.0
  0
LINE
  5
2B0
330
1F
100
AcDbEntity
  8
0
  6
Continuous
 62
     7
370
    15
100
AcDbLine
 10
1171.9026177538
 20
254.0
 30
0.0
 11
1171.9026177538
 21
246.4393014708
 31
0.0
  0
LINE
  5
2B1
330
1F
100
AcDbEntity
  8
0
  6
Continuous
 62
     7
370
    15
100
AcDbLine
 10
1171.9026177538
 20
183.5606985292
 30
0.0
 11
1171.9026177538
 21
176.0
 31
0.0
  0
LINE
  5
2B2
330
1F
100
AcDbEntity
  8
0
  6
Continuous
 62
     7
370
    15
100
AcDbLine
 10
1538.9544317437
 20
254.0
 30
0.0
 11
1538.9544317437
 21
246.4393014708
 31
0.0
  0
LINE
  5
2B3
330
1F
100
AcDbEntity
  8
0
  6
Continuous
 62
     7
370
    15
100
AcDbLine
 10
1538.9544317437
 20
183.5606985292
 30
0.0
 11
1538.9544317437
 21
176.0
 31
0.0
  0
LINE
  5
2B4
330
1F
100
AcDbEntity
  8
0
  6
Continuous
 62
     7
370
    15
100
AcDbLine
 10
1537.4015174731
 20
254.0
 30
0.0
 11
1537.4015174731
 21
176.0
 31
0.0
  0
LINE
  5
2B5
330
1F
100
AcDbEntity
  8
0
  6
Continuous
 62
     7
370
    15
100
AcDbLine
 10
1529.2951734808
 20
166.0
 30
0.0
 11
1498.731122144
 21
166.0
 31
0.0
  0
LINE
  5
2B6
330
1F
100
AcDbEntity
  8
0
  6
Continuous
 62
     7
370
    15
100
AcDbLine
 10
1475.254542976
 20
166.0
 30
0.0
 11
1469.7867096328
 21
166.0
 31
0.0
  0
LINE
  5
2B7
330
1F
100
AcDbEntity
  8
0
  6
Continuous
 62
     7
370
    15
100
AcDbLine
 10
1469.7867096328
 20
264.0
 30
0.0
 11
1475.254542976
 21
264.0
 31
0.0
  0
LINE
  5
2B8
330
1F
100
AcDbEntity
  8
0
  6
Continuous
 62
     7
370
    15
100
AcDbLine
 10
1498.731122144
 20
264.0
 30
0.0
 11
1529.2951734808
 21
264.0
 31
0.0
  0
LINE
  5
2B9
330
1F
100
AcDbEntity
  8
0
  6
Continuous
 62
     7
370
    15
100
AcDbLine
 10
-1184.9563983915
 20
254.0
 30
0.0
 11
-1184.9563983915
 21
246.4393014708
 31
0.0
  0
LINE
  5
2BA
330
1F
100
AcDbEntity
  8
0
  6
Continuous
 62
     7
370
    15
100
AcDbLine
 10
-1184.9563983915
 20
183.5606985292
 30
0.0
 11
-1184.9563983915
 21
176.0
 31
0.0
  0
LINE
  5
2BB
330
1F
100
AcDbEntity
  8
0
  6
Continuous
 62
     7
370
    15
100
AcDbLine
 10
-1186.5093126621
 20
254.0
 30
0.0
 11
-1186.5093126621
 21
176.0
 31
0.0
  0
LINE
  5
2BC
330
1F
100
AcDbEntity
  8
0
  6
Continuous
 62
     7
370
    15
100
AcDbLine
 10
-1194.6156566544
 20
166.0
 30
0.0
 11
-1225.1797079912
 21
166.0
 31
0.0
  0
LINE
  5
2BD
330
1F
100
AcDbEntity
  8
0
  6
Continuous
 62
     7
370
    15
100
AcDbLine
 10
-1225.1797079912
 20
264.0
 30
0.0
 11
-1194.6156566544
 21
264.0
 31
0.0
  0
LINE
  5
2BE
330
1F
100
AcDbEntity
  8
0
  6
Continuous
 62
     7
370
    15
100
AcDbLine
 10
-1248.6562871592
 20
166.0
 30
0.0
 11
-1254.1241205023
 21
166.0
 31
0.0
  0
LINE
  5
2BF
330
1F
100
AcDbEntity
  8
0
  6
Continuous
 62
     7
370
    15
100
AcDbLine
 10
-1254.1241205023
 20
264.0
 30
0.0
 11
-1248.6562871592
 21
264.0
 31
0.0
  0
LINE
  5
2C0
330
1F
100
AcDbEntity
  8
0
  6
Continuous
 62
     7
370
    15
100
AcDbLine
 10
-1592.231521981
 20
264.0
 30
0.0
 11
-1561.6674706442
 21
264.0
 31
0.0
  0
LINE
  5
2C1
330
1F
100
AcDbEntity
  8
0
  6
Continuous
 62
     7
370
    15
100
AcDbLine
 10
-1561.6674706442
 20
166.0
 30
0.0
 11
-1592.231521981
 21
166.0
 31
0.0
  0
LINE
  5
2C2
330
1F
100
AcDbEntity
  8
0
  6
Continuous
 62
     7
370
    15
100
AcDbLine
 10
-1553.561126652
 20
254.0
 30
0.0
 11
-1553.561126652
 21
176.0
 31
0.0
  0
LINE
  5
2C3
330
1F
100
AcDbEntity
  8
0
  6
Continuous
 62
     7
370
    15
100
AcDbLine
 10
-1615.708101149
 20
166.0
 30
0.0
 11
-1621.1759344922
 21
166.0
 31
0.0
  0
LINE
  5
2C4
330
1F
100
AcDbEntity
  8
0
  6
Continuous
 62
     7
370
    15
100
AcDbLine
 10
-1621.1759344922
 20
264.0
 30
0.0
 11
-1615.708101149
 21
264.0
 31
0.0
  0
LINE
  5
2C5
330
1F
100
AcDbEntity
  8
0
  6
Continuous
 62
     7
370
    15
100
AcDbLine
 10
-1552.0082123813
 20
254.0
 30
0.0
 11
-1552.0082123813
 21
246.4393014708
 31
0.0
  0
LINE
  5
2C6
330
1F
100
AcDbEntity
  8
0
  6
Continuous
 62
     7
370
    15
100
AcDbLine
 10
-1552.0082123813
 20
183.5606985292
 30
0.0
 11
-1552.0082123813
 21
176.0
 31
0.0
  0
LINE
  5
2C7
330
1F
100
AcDbEntity
  8
0
  6
Continuous
 62
     7
370
    15
100
AcDbLine
 10
-36.9551811513
 20
-84.1189237413
 30
0.0
 11
-36.7510088798
 21
-83.5547307924
 31
0.0
  0
LINE
  5
2C8
330
1F
100
AcDbEntity
  8
0
  6
Continuous
 62
     7
370
    15
100
AcDbLine
 10
36.9551811513
 20
-84.1189237413
 30
0.0
 11
36.7510088798
 21
-83.5547307924
 31
0.0
  0
LINE
  5
2C9
330
1F
100
AcDbEntity
  8
0
  6
Continuous
 62
     7
370
    15
100
AcDbLine
 10
1.8031873647
 20
519.9819343831
 30
0.0
 11
1.8031873647
 21
524.3508529611
 31
0.0
  0
LINE
  5
2CA
330
1F
100
AcDbEntity
  8
0
  6
Continuous
 62
     7
370
    15
100
AcDbLine
 10
-10.9963635581
 20
524.3508529611
 30
0.0
 11
-10.9963635581
 21
519.3256961266
 31
0.0
  0
LINE
  5
2CB
330
1F
100
AcDbEntity
  8
0
  6
Continuous
 62
     7
370
    15
100
AcDbLine
 10
11.0
 20
526.0
 30
0.0
 11
-11.0
 21
526.0
 31
0.0
  0
LINE
  5
2CC
330
1F
100
AcDbEntity
  8
0
  6
Continuous
 62
     7
370
    15
100
AcDbLine
 10
12.7995509228
 20
524.3508529611
 30
0.0
 11
12.7995509228
 21
519.0851923508
 31
0.0
  0
LINE
  5
2CD
330
1F
100
AcDbEntity
  8
0
  6
Continuous
 62
     7
370
    15
100
AcDbLine
 10
-12.7995509228
 20
524.3508529611
 30
0.0
 11
-12.7995509228
 21
519.0851923508
 31
0.0
  0
LINE
  5
2CE
330
1F
100
AcDbEntity
  8
0
  6
Continuous
 62
     7
370
    15
100
AcDbLine
 10
-10.9963635581
 20
-94.3508529611
 30
0.0
 11
-10.9963635581
 21
-90.0418436926
 31
0.0
  0
LINE
  5
2CF
330
1F
100
AcDbEntity
  8
0
  6
Continuous
 62
     7
370
    15
100
AcDbLine
 10
-10.9963635581
 20
-89.4387266701
 30
0.0
 11
-10.9963635581
 21
-89.3256961266
 31
0.0
  0
LINE
  5
2D0
330
1F
100
AcDbEntity
  8
0
  6
Continuous
 62
     7
370
    15
100
AcDbLine
 10
1.8031873647
 20
-89.9819343831
 30
0.0
 11
1.8031873647
 21
-89.984945781
 31
0.0
  0
LINE
  5
2D1
330
1F
100
AcDbEntity
  8
0
  6
Continuous
 62
     7
370
    15
100
AcDbLine
 10
1.8031873647
 20
-90.585028965
 30
0.0
 11
1.8031873647
 21
-94.3508529611
 31
0.0
  0
LINE
  5
2D2
330
1F
100
AcDbEntity
  8
0
  6
Continuous
 62
     7
370
    15
100
AcDbLine
 10
-11.0
 20
-96.0
 30
0.0
 11
11.0
 21
-96.0
 31
0.0
  0
LINE
  5
2D3
330
1F
100
AcDbEntity
  8
0
  6
Continuous
 62
     7
370
    15
100
AcDbLine
 10
12.7995509228
 20
-94.3508529611
 30
0.0
 11
12.7995509228
 21
-89.8430873824
 31
0.0
  0
LINE
  5
2D4
330
1F
100
AcDbEntity
  8
0
  6
Continuous
 62
     7
370
    15
100
AcDbLine
 10
12.7995509228
 20
-89.2388525497
 30
0.0
 11
12.7995509228
 21
-89.0851923508
 31
0.0
  0
LINE
  5
2D5
330
1F
100
AcDbEntity
  8
0
  6
Continuous
 62
     7
370
    15
100
AcDbLine
 10
-12.7995509228
 20
-94.3508529611
 30
0.0
 11
-12.7995509228
 21
-89.8430873824
 31
0.0
  0
LINE
  5
2D6
330
1F
100
AcDbEntity
  8
0
  6
Continuous
 62
     7
370
    15
100
AcDbLine
 10
-12.7995509228
 20
-89.2388525497
 30
0.0
 11
-12.7995509228
 21
-89.0851923508
 31
0.0
  0
LINE
  5
2D7
330
1F
100
AcDbEntity
  8
0
  6
Continuous
 62
     7
370
    15
100
AcDbLine
 10
-331.4578299206
 20
216.3366792115
 30
0.0
 11
-329.2964701314
 21
216.3366792115
 31
0.0
  0
LINE
  5
2D8
330
1F
100
AcDbEntity
  8
0
  6
Continuous
 62
     7
370
    15
100
AcDbLine
 10
-334.8392360547
 20
203.7243048388
 30
0.0
 11
-329.2964701314
 21
216.3366792115
 31
0.0
  0
LINE
  5
2D9
330
1F
100
AcDbEntity
  8
0
  6
Continuous
 62
     7
370
    15
100
AcDbLine
 10
-337.0005958439
 20
203.7243048388
 30
0.0
 11
-334.8392360547
 21
203.7243048388
 31
0.0
  0
LINE
  5
2DA
330
1F
100
AcDbEntity
  8
0
  6
Continuous
 62
     7
370
    15
100
AcDbLine
 10
-337.0755439613
 20
227.6123743727
 30
0.0
 11
-339.2369037505
 21
227.6123743727
 31
0.0
  0
LINE
  5
2DB
330
1F
100
AcDbEntity
  8
0
  6
Continuous
 62
     7
370
    15
100
AcDbLine
 10
-329.2964701314
 20
216.3366792115
 30
0.0
 11
-337.0755439613
 21
227.6123743727
 31
0.0
  0
LINE
  5
2DC
330
1F
100
AcDbEntity
  8
0
  6
Continuous
 62
     7
370
    15
100
AcDbLine
 10
-348.161075808
 20
202.3876256273
 30
0.0
 11
-334.8392360547
 21
203.7243048388
 31
0.0
  0
LINE
  5
2DD
330
1F
100
AcDbEntity
  8
0
  6
Continuous
 62
     7
370
    15
100
AcDbLine
 10
-350.3224355972
 20
202.3876256273
 30
0.0
 11
-348.161075808
 21
202.3876256273
 31
0.0
  0
LINE
  5
2DE
330
1F
100
AcDbEntity
  8
0
  6
Continuous
 62
     7
370
    15
100
AcDbLine
 10
257.7569241158
 20
216.3366792115
 30
0.0
 11
259.918283905
 21
216.3366792115
 31
0.0
  0
LINE
  5
2DF
330
1F
100
AcDbEntity
  8
0
  6
Continuous
 62
     7
370
    15
100
AcDbLine
 10
254.3755179816
 20
203.7243048388
 30
0.0
 11
259.918283905
 21
216.3366792115
 31
0.0
  0
LINE
  5
2E0
330
1F
100
AcDbEntity
  8
0
  6
Continuous
 62
     7
370
    15
100
AcDbLine
 10
252.2141581924
 20
203.7243048388
 30
0.0
 11
254.3755179816
 21
203.7243048388
 31
0.0
  0
LINE
  5
2E1
330
1F
100
AcDbEntity
  8
0
  6
Continuous
 62
     7
370
    15
100
AcDbLine
 10
252.139210075
 20
227.6123743727
 30
0.0
 11
249.9778502858
 21
227.6123743727
 31
0.0
  0
LINE
  5
2E2
330
1F
100
AcDbEntity
  8
0
  6
Continuous
 62
     7
370
    15
100
AcDbLine
 10
259.918283905
 20
216.3366792115
 30
0.0
 11
252.139210075
 21
227.6123743727
 31
0.0
  0
LINE
  5
2E3
330
1F
100
AcDbEntity
  8
0
  6
Continuous
 62
     7
370
    15
100
AcDbLine
 10
241.0536782283
 20
202.3876256273
 30
0.0
 11
254.3755179816
 21
203.7243048388
 31
0.0
  0
LINE
  5
2E4
330
1F
100
AcDbEntity
  8
0
  6
Continuous
 62
     7
370
    15
100
AcDbLine
 10
238.8923184391
 20
202.3876256273
 30
0.0
 11
241.0536782283
 21
202.3876256273
 31
0.0
  0
LINE
  5
2E5
330
1F
100
AcDbEntity
  8
0
  6
Continuous
 62
     7
370
    15
100
AcDbLine
 10
108.038421041
 20
216.3366792115
 30
0.0
 11
110.1997808301
 21
216.3366792115
 31
0.0
  0
LINE
  5
2E6
330
1F
100
AcDbEntity
  8
0
  6
Continuous
 62
     7
370
    15
100
AcDbLine
 10
104.6570149068
 20
203.7243048388
 30
0.0
 11
110.1997808301
 21
216.3366792115
 31
0.0
  0
LINE
  5
2E7
330
1F
100
AcDbEntity
  8
0
  6
Continuous
 62
     7
370
    15
100
AcDbLine
 10
102.4956551176
 20
203.7243048388
 30
0.0
 11
104.6570149068
 21
203.7243048388
 31
0.0
  0
LINE
  5
2E8
330
1F
100
AcDbEntity
  8
0
  6
Continuous
 62
     7
370
    15
100
AcDbLine
 10
102.4207070002
 20
227.6123743727
 30
0.0
 11
100.259347211
 21
227.6123743727
 31
0.0
  0
LINE
  5
2E9
330
1F
100
AcDbEntity
  8
0
  6
Continuous
 62
     7
370
    15
100
AcDbLine
 10
110.1997808301
 20
216.3366792115
 30
0.0
 11
102.4207070002
 21
227.6123743727
 31
0.0
  0
LINE
  5
2EA
330
1F
100
AcDbEntity
  8
0
  6
Continuous
 62
     7
370
    15
100
AcDbLine
 10
91.3351751535
 20
202.3876256273
 30
0.0
 11
104.6570149068
 21
203.7243048388
 31
0.0
  0
LINE
  5
2EB
330
1F
100
AcDbEntity
  8
0
  6
Continuous
 62
     7
370
    15
100
AcDbLine
 10
89.1738153643
 20
202.3876256273
 30
0.0
 11
91.3351751535
 21
202.3876256273
 31
0.0
  0
LINE
  5
2EC
330
1F
100
AcDbEntity
  8
0
  6
Continuous
 62
     7
370
    15
100
AcDbLine
 10
-181.7393268458
 20
216.3366792115
 30
0.0
 11
-179.5779670566
 21
216.3366792115
 31
0.0
  0
LINE
  5
2ED
330
1F
100
AcDbEntity
  8
0
  6
Continuous
 62
     7
370
    15
100
AcDbLine
 10
-185.1207329799
 20
203.7243048388
 30
0.0
 11
-179.5779670566
 21
216.3366792115
 31
0.0
  0
LINE
  5
2EE
330
1F
100
AcDbEntity
  8
0
  6
Continuous
 62
     7
370
    15
100
AcDbLine
 10
-187.2820927691
 20
203.7243048388
 30
0.0
 11
-185.1207329799
 21
203.7243048388
 31
0.0
  0
LINE
  5
2EF
330
1F
100
AcDbEntity
  8
0
  6
Continuous
 62
     7
370
    15
100
AcDbLine
 10
-187.3570408865
 20
227.6123743727
 30
0.0
 11
-189.5184006757
 21
227.6123743727
 31
0.0
  0
LINE
  5
2F0
330
1F
100
AcDbEntity
  8
0
  6
Continuous
 62
     7
370
    15
100
AcDbLine
 10
-179.5779670566
 20
216.3366792115
 30
0.0
 11
-187.3570408865
 21
227.6123743727
 31
0.0
  0
LINE
  5
2F1
330
1F
100
AcDbEntity
  8
0
  6
Continuous
 62
     7
370
    15
100
AcDbLine
 10
-198.4425727332
 20
202.3876256273
 30
0.0
 11
-185.1207329799
 21
203.7243048388
 31
0.0
  0
LINE
  5
2F2
330
1F
100
AcDbEntity
  8
0
  6
Continuous
 62
     7
370
    15
100
AcDbLine
 10
-200.6039325224
 20
202.3876256273
 30
0.0
 11
-198.4425727332
 21
202.3876256273
 31
0.0
  0
LINE
  5
2F3
330
1F
100
AcDbEntity
  8
0
  6
PHANTOM
 62
     8
370
     0
100
AcDbLine
 10
-1980.2585503298
 20
185.5
 30
0.0
 11
-1977.382046368
 21
185.5
 31
0.0
  0
LINE
  5
2F4
330
1F
100
AcDbEntity
  8
0
  6
PHANTOM
 62
     8
370
     0
100
AcDbLine
 10
-1980.2585503298
 20
244.5
 30
0.0
 11
-1977.3794706794
 21
244.5
 31
0.0
  0
LINE
  5
2F5
330
1F
100
AcDbEntity
  8
0
  6
PHANTOM
 62
     8
370
     0
100
AcDbLine
 10
-27.5
 20
350.0
 30
0.0
 11
-27.5
 21
346.0
 31
0.0
  0
LINE
  5
2F6
330
1F
100
AcDbEntity
  8
0
  6
PHANTOM
 62
     8
370
     0
100
AcDbLine
 10
27.5
 20
350.0
 30
0.0
 11
27.5
 21
346.0
 31
0.0
  0
LINE
  5
2F7
330
1F
100
AcDbEntity
  8
0
  6
PHANTOM
 62
     8
370
     0
100
AcDbLine
 10
-27.5
 20
80.0
 30
0.0
 11
-27.5
 21
84.0
 31
0.0
  0
LINE
  5
2F8
330
1F
100
AcDbEntity
  8
0
  6
PHANTOM
 62
     8
370
     0
100
AcDbLine
 10
27.5
 20
80.0
 30
0.0
 11
27.5
 21
84.0
 31
0.0
  0
LINE
  5
2F9
330
1F
100
AcDbEntity
  8
0
  6
PHANTOM
 62
     8
370
     0
100
AcDbLine
 10
-40.0
 20
75.0
 30
0.0
 11
40.0
 21
75.0
 31
0.0
  0
LINE
  5
2FA
330
1F
100
AcDbEntity
  8
0
  6
PHANTOM
 62
     8
370
     0
100
AcDbLine
 10
40.0
 20
355.0
 30
0.0
 11
-40.0
 21
355.0
 31
0.0
  0
LINE
  5
2FB
330
1F
100
AcDbEntity
  8
0
  6
PHANTOM
 62
     8
370
     0
100
AcDbLine
 10
1925.8219630294
 20
185.5
 30
0.0
 11
1980.2585503298
 21
185.5
 31
0.0
  0
LINE
  5
2FC
330
1F
100
AcDbEntity
  8
0
  6
PHANTOM
 62
     8
370
     0
100
AcDbLine
 10
1925.8245632206
 20
244.5
 30
0.0
 11
1980.2585503298
 21
244.5
 31
0.0
  0
LINE
  5
2FD
330
1F
100
AcDbEntity
  8
0
  6
PHANTOM
 62
     8
370
     0
100
AcDbLine
 10
-29.5
 20
338.0
 30
0.0
 11
29.5
 21
338.0
 31
0.0
  0
LINE
  5
2FE
330
1F
100
AcDbEntity
  8
0
  6
PHANTOM
 62
     8
370
     0
100
AcDbLine
 10
-21.2886751346
 20
333.5
 30
0.0
 11
21.2886751346
 21
333.5
 31
0.0
  0
LINE
  5
2FF
330
1F
100
AcDbEntity
  8
0
  6
PHANTOM
 62
     8
370
     0
100
AcDbLine
 10
29.5
 20
92.0
 30
0.0
 11
-29.5
 21
92.0
 31
0.0
  0
LINE
  5
300
330
1F
100
AcDbEntity
  8
0
  6
PHANTOM
 62
     8
370
     0
100
AcDbLine
 10
21.2886751346
 20
96.5
 30
0.0
 11
-21.2886751346
 21
96.5
 31
0.0
  0
LINE
  5
301
330
1F
100
AcDbEntity
  8
0
  6
PHANTOM
 62
     8
370
     0
100
AcDbLine
 10
1073.8311478875
 20
262.5
 30
0.0
 11
1093.8311402525
 21
262.5
 31
0.0
  0
LINE
  5
302
330
1F
100
AcDbEntity
  8
0
  6
PHANTOM
 62
     8
370
     0
100
AcDbLine
 10
1093.8311470584
 20
167.5
 30
0.0
 11
1073.8311470879
 21
167.5
 31
0.0
  0
LINE
  5
303
330
1F
100
AcDbEntity
  8
0
  6
PHANTOM
 62
     8
370
     0
100
AcDbLine
 10
1171.9026177538
 20
176.0
 30
0.0
 11
1170.3497034832
 21
176.0
 31
0.0
  0
LINE
  5
304
330
1F
100
AcDbEntity
  8
0
  6
PHANTOM
 62
     8
370
     0
100
AcDbLine
 10
1171.9026177538
 20
254.0
 30
0.0
 11
1170.3497034832
 21
254.0
 31
0.0
  0
LINE
  5
305
330
1F
100
AcDbEntity
  8
0
  6
PHANTOM
 62
     8
370
     0
100
AcDbLine
 10
1460.8829610775
 20
167.5
 30
0.0
 11
1440.8829610775
 21
167.5
 31
0.0
  0
LINE
  5
306
330
1F
100
AcDbEntity
  8
0
  6
PHANTOM
 62
     8
370
     0
100
AcDbLine
 10
1440.8829610775
 20
262.5
 30
0.0
 11
1460.8829610775
 21
262.5
 31
0.0
  0
LINE
  5
307
330
1F
100
AcDbEntity
  8
0
  6
PHANTOM
 62
     8
370
     0
100
AcDbLine
 10
1538.9544317437
 20
254.0
 30
0.0
 11
1537.4015174731
 21
254.0
 31
0.0
  0
LINE
  5
308
330
1F
100
AcDbEntity
  8
0
  6
PHANTOM
 62
     8
370
     0
100
AcDbLine
 10
1538.9544317437
 20
176.0
 30
0.0
 11
1537.4015174731
 21
176.0
 31
0.0
  0
LINE
  5
309
330
1F
100
AcDbEntity
  8
0
  6
PHANTOM
 62
     8
370
     0
100
AcDbLine
 10
-1283.0278682578
 20
262.5
 30
0.0
 11
-1263.0278758928
 21
262.5
 31
0.0
  0
LINE
  5
30A
330
1F
100
AcDbEntity
  8
0
  6
PHANTOM
 62
     8
370
     0
100
AcDbLine
 10
-1263.0278690869
 20
167.5
 30
0.0
 11
-1283.0278690574
 21
167.5
 31
0.0
  0
LINE
  5
30B
330
1F
100
AcDbEntity
  8
0
  6
PHANTOM
 62
     8
370
     0
100
AcDbLine
 10
-1184.9563983915
 20
254.0
 30
0.0
 11
-1186.5093126621
 21
254.0
 31
0.0
  0
LINE
  5
30C
330
1F
100
AcDbEntity
  8
0
  6
PHANTOM
 62
     8
370
     0
100
AcDbLine
 10
-1184.9563983915
 20
176.0
 30
0.0
 11
-1186.5093126621
 21
176.0
 31
0.0
  0
LINE
  5
30D
330
1F
100
AcDbEntity
  8
0
  6
PHANTOM
 62
     8
370
     0
100
AcDbLine
 10
-1650.0796822477
 20
262.5
 30
0.0
 11
-1630.0796898827
 21
262.5
 31
0.0
  0
LINE
  5
30E
330
1F
100
AcDbEntity
  8
0
  6
PHANTOM
 62
     8
370
     0
100
AcDbLine
 10
-1630.0796830475
 20
167.5
 30
0.0
 11
-1650.0796830475
 21
167.5
 31
0.0
  0
LINE
  5
30F
330
1F
100
AcDbEntity
  8
0
  6
PHANTOM
 62
     8
370
     0
100
AcDbLine
 10
-1552.0082123813
 20
254.0
 30
0.0
 11
-1553.561126652
 21
254.0
 31
0.0
  0
LINE
  5
310
330
1F
100
AcDbEntity
  8
0
  6
PHANTOM
 62
     8
370
     0
100
AcDbLine
 10
-1552.0082123813
 20
176.0
 30
0.0
 11
-1553.561126652
 21
176.0
 31
0.0
  0
LINE
  5
311
330
1F
100
AcDbEntity
  8
0
  6
PHANTOM
 62
     8
370
     0
100
AcDbLine
 10
-31.2568073772
 20
-86.0046729363
 30
0.0
 11
-31.0523210425
 21
-85.4396121313
 31
0.0
  0
LINE
  5
312
330
1F
100
AcDbEntity
  8
0
  6
PHANTOM
 62
     8
370
     0
100
AcDbLine
 10
31.0523210425
 20
-85.4396121313
 30
0.0
 11
31.2568073772
 21
-86.0046729363
 31
0.0
  0
ARC
  5
313
330
1F
100
AcDbEntity
  8
0
  6
Continuous
 62
     7
370
    15
100
AcDbCircle
 10
-26.5
 20
338.0
 30
0.0
 40
3.0
100
AcDbArc
 50
180.0
 51
270.0
  0
ARC
  5
314
330
1F
100
AcDbEntity
  8
0
  6
Continuous
 62
     7
370
    15
100
AcDbCircle
 10
26.5
 20
338.0
 30
0.0
 40
3.0
100
AcDbArc
 50
270.0
 51
0.0
  0
ARC
  5
315
330
1F
100
AcDbEntity
  8
0
  6
Continuous
 62
     7
370
    15
100
AcDbCircle
 10
-18.6905989232
 20
335.0
 30
0.0
 40
3.000000000000019
100
AcDbArc
 50
210.0
 51
270.0
  0
ARC
  5
316
330
1F
100
AcDbEntity
  8
0
  6
Continuous
 62
     7
370
    15
100
AcDbCircle
 10
18.6905989232
 20
335.0
 30
0.0
 40
3.000000000000341
100
AcDbArc
 50
270.0
 51
330.0
  0
ARC
  5
317
330
1F
100
AcDbEntity
  8
0
  6
Continuous
 62
     7
370
    15
100
AcDbCircle
 10
26.5
 20
92.0
 30
0.0
 40
3.000000000000004
100
AcDbArc
 50
0.0
 51
90.0
  0
ARC
  5
318
330
1F
100
AcDbEntity
  8
0
  6
Continuous
 62
     7
370
    15
100
AcDbCircle
 10
-26.5
 20
92.0
 30
0.0
 40
2.999999999999972
100
AcDbArc
 50
90.0
 51
180.0
  0
ARC
  5
319
330
1F
100
AcDbEntity
  8
0
  6
Continuous
 62
     7
370
    15
100
AcDbCircle
 10
18.6905989232
 20
95.0
 30
0.0
 40
2.999999999999859
100
AcDbArc
 50
30.0
 51
90.0
  0
ARC
  5
31A
330
1F
100
AcDbEntity
  8
0
  6
Continuous
 62
     7
370
    15
100
AcDbCircle
 10
-18.6905989232
 20
95.0
 30
0.0
 40
2.999999999999959
100
AcDbArc
 50
90.0
 51
150.0
  0
ARC
  5
31B
330
1F
100
AcDbEntity
  8
0
  6
Continuous
 62
     7
370
    15
100
AcDbCircle
 10
1852.5090747205
 20
215.0
 30
0.0
 40
315.0920386548252
100
AcDbArc
 50
170.9156485003
 51
189.0843514997
  0
ARC
  5
31C
330
1F
100
AcDbEntity
  8
0
  6
Continuous
 62
     7
370
    15
100
AcDbCircle
 10
1485.4572607306
 20
215.0
 30
0.0
 40
315.0920386548494
100
AcDbArc
 50
170.9156485003
 51
189.0843514997
  0
ARC
  5
31D
330
1F
100
AcDbEntity
  8
0
  6
Continuous
 62
     7
370
    15
100
AcDbCircle
 10
-871.4017554147
 20
215.0
 30
0.0
 40
315.0920386548325
100
AcDbArc
 50
170.9156485003
 51
189.0843514997
  0
ARC
  5
31E
330
1F
100
AcDbEntity
  8
0
  6
Continuous
 62
     7
370
    15
100
AcDbCircle
 10
-1238.4535694045
 20
215.0
 30
0.0
 40
315.0920386548564
100
AcDbArc
 50
170.9156485003
 51
189.0843514997
  0
ARC
  5
31F
330
1F
100
AcDbEntity
  8
0
  6
Continuous
 62
     7
370
    15
100
AcDbCircle
 10
255.9651158315
 20
213.415416479
 30
0.0
 40
25.92061303267933
100
AcDbArc
 50
244.2003055199
 51
259.8594846585
  0
ARC
  5
320
330
1F
100
AcDbEntity
  8
0
  6
Continuous
 62
     7
370
    15
100
AcDbCircle
 10
255.9639079884
 20
216.587513519
 30
0.0
 40
25.9174494093398
100
AcDbArc
 50
99.7484820317
 51
115.8001095738
  0
ARC
  5
321
330
1F
100
AcDbEntity
  8
0
  6
Continuous
 62
     7
370
    15
100
AcDbCircle
 10
106.2466127567
 20
213.415416479
 30
0.0
 40
25.92061303269294
100
AcDbArc
 50
244.2003055192
 51
259.8594846585
  0
ARC
  5
322
330
1F
100
AcDbEntity
  8
0
  6
Continuous
 62
     7
370
    15
100
AcDbCircle
 10
106.2454049136
 20
216.587513519
 30
0.0
 40
25.91744940935272
100
AcDbArc
 50
99.7484820317
 51
115.8001095751
  0
ARC
  5
323
330
1F
100
AcDbEntity
  8
0
  6
Continuous
 62
     7
370
    15
100
AcDbCircle
 10
-183.53113513
 20
213.415416479
 30
0.0
 40
25.92061303269908
100
AcDbArc
 50
244.2003055188
 51
259.8594846585
  0
ARC
  5
324
330
1F
100
AcDbEntity
  8
0
  6
Continuous
 62
     7
370
    15
100
AcDbCircle
 10
-183.5323429731
 20
216.587513519
 30
0.0
 40
25.91744940935425
100
AcDbArc
 50
99.7484820317
 51
115.8001095756
  0
ARC
  5
325
330
1F
100
AcDbEntity
  8
0
  6
Continuous
 62
     7
370
    15
100
AcDbCircle
 10
-333.2496382048
 20
213.415416479
 30
0.0
 40
25.9206130327013
100
AcDbArc
 50
244.2003055194
 51
259.8594846585
  0
ARC
  5
326
330
1F
100
AcDbEntity
  8
0
  6
Continuous
 62
     7
370
    15
100
AcDbCircle
 10
-333.2508460479
 20
216.587513519
 30
0.0
 40
25.91744940935124
100
AcDbArc
 50
99.7484820317
 51
115.8001095746
  0
ARC
  5
327
330
1F
100
AcDbEntity
  8
0
  6
Continuous
 62
     7
370
    15
100
AcDbCircle
 10
-334.0774162695
 20
216.6641467359
 30
0.0
 40
23.33583579334784
100
AcDbArc
 50
82.7836893823
 51
99.5762516371
  0
ARC
  5
328
330
1F
100
AcDbEntity
  8
0
  6
Continuous
 62
     7
370
    15
100
AcDbCircle
 10
-334.0773797176
 20
213.3375656753
 30
0.0
 40
23.33753042433983
100
AcDbArc
 50
260.4243592737
 51
277.3617133901
  0
ARC
  5
329
330
1F
100
AcDbEntity
  8
0
  6
Continuous
 62
     7
370
    15
100
AcDbCircle
 10
255.1373377668
 20
216.6641467359
 30
0.0
 40
23.33583579334921
100
AcDbArc
 50
82.7836893822
 51
99.5762516371
  0
ARC
  5
32A
330
1F
100
AcDbEntity
  8
0
  6
Continuous
 62
     7
370
    15
100
AcDbCircle
 10
255.1373743188
 20
213.3375656753
 30
0.0
 40
23.33753042434056
100
AcDbArc
 50
260.4243592737
 51
277.3617133901
  0
ARC
  5
32B
330
1F
100
AcDbEntity
  8
0
  6
Continuous
 62
     7
370
    15
100
AcDbCircle
 10
105.418834692
 20
216.6641467359
 30
0.0
 40
23.33583579334944
100
AcDbArc
 50
82.7836893822
 51
99.5762516371
  0
ARC
  5
32C
330
1F
100
AcDbEntity
  8
0
  6
Continuous
 62
     7
370
    15
100
AcDbCircle
 10
105.418871244
 20
213.3375656753
 30
0.0
 40
23.33753042434175
100
AcDbArc
 50
260.4243592737
 51
277.3617133901
  0
ARC
  5
32D
330
1F
100
AcDbEntity
  8
0
  6
Continuous
 62
     7
370
    15
100
AcDbCircle
 10
-184.3589131947
 20
216.6641467359
 30
0.0
 40
23.33583579335481
100
AcDbArc
 50
82.7836893822
 51
99.5762516371
  0
ARC
  5
32E
330
1F
100
AcDbEntity
  8
0
  6
Continuous
 62
     7
370
    15
100
AcDbCircle
 10
-184.3588766428
 20
213.3375656753
 30
0.0
 40
23.3375304243449
100
AcDbArc
 50
260.4243592738
 51
277.3617133901
  0
ARC
  5
32F
330
1F
100
AcDbEntity
  8
0
  6
Continuous
 62
     7
370
    15
100
AcDbCircle
 10
1522.5562290314
 20
180.9719365733
 30
0.0
 40
11.70848902613074
100
AcDbArc
 50
315.356982229
 51
88.2556732511
  0
ARC
  5
330
330
1F
100
AcDbEntity
  8
0
  6
Continuous
 62
     7
370
    15
100
AcDbCircle
 10
1522.8779409121
 20
180.4133492211
 30
0.0
 40
11.08840348234015
100
AcDbArc
 50
270.179245469
 51
316.2425236606
  0
ARC
  5
331
330
1F
100
AcDbEntity
  8
0
  6
Continuous
 62
     7
370
    15
100
AcDbCircle
 10
1474.6141421886
 20
249.7526017673
 30
0.0
 40
10.92239845362118
100
AcDbArc
 50
74.4367352852
 51
89.9884773921
  0
ARC
  5
332
330
1F
100
AcDbEntity
  8
0
  6
Continuous
 62
     7
370
    15
100
AcDbCircle
 10
1474.4518700756
 20
248.7303711541
 30
0.0
 40
11.40655693502062
100
AcDbArc
 50
270.8261641378
 51
351.1310984225
  0
ARC
  5
333
330
1F
100
AcDbEntity
  8
0
  6
Continuous
 62
     7
370
    15
100
AcDbCircle
 10
1155.832208319
 20
181.6008322994
 30
0.0
 40
11.07420465162946
100
AcDbArc
 50
43.7262420687
 51
89.8519888017
  0
ARC
  5
334
330
1F
100
AcDbEntity
  8
0
  6
Continuous
 62
     7
370
    15
100
AcDbCircle
 10
1155.5044150415
 20
181.0280634267
 30
0.0
 40
11.70848902613038
100
AcDbArc
 50
271.7443267489
 51
44.643017771
  0
ARC
  5
335
330
1F
100
AcDbEntity
  8
0
  6
Continuous
 62
     7
370
    15
100
AcDbCircle
 10
1107.5623281988
 20
249.7526017673
 30
0.0
 40
10.92239845362076
100
AcDbArc
 50
74.4367352852
 51
89.9884773921
  0
ARC
  5
336
330
1F
100
AcDbEntity
  8
0
  6
Continuous
 62
     7
370
    15
100
AcDbCircle
 10
1107.4000560858
 20
248.7303711541
 30
0.0
 40
11.40655693501968
100
AcDbArc
 50
270.8261641378
 51
351.1310984225
  0
ARC
  5
337
330
1F
100
AcDbEntity
  8
0
  6
Continuous
 62
     7
370
    15
100
AcDbCircle
 10
-1249.5213766413
 20
249.6691341272
 30
0.0
 40
11.00299472985126
100
AcDbArc
 50
73.0713026623
 51
136.4110917707
  0
ARC
  5
338
330
1F
100
AcDbEntity
  8
0
  6
Continuous
 62
     7
370
    15
100
AcDbCircle
 10
-1249.4589600596
 20
248.7303711541
 30
0.0
 40
11.40655693502085
100
AcDbArc
 50
270.8261641378
 51
351.1310984226
  0
ARC
  5
339
330
1F
100
AcDbEntity
  8
0
  6
Continuous
 62
     7
370
    15
100
AcDbCircle
 10
-1249.2966879466
 20
249.7526017669
 30
0.0
 40
10.92239845395231
100
AcDbArc
 50
74.4367352854
 51
89.9884773919
  0
ARC
  5
33A
330
1F
100
AcDbEntity
  8
0
  6
Continuous
 62
     7
370
    15
100
AcDbCircle
 10
-1201.3054515952
 20
181.0
 30
0.0
 40
11.67904227700566
100
AcDbArc
 50
271.5075078337
 51
88.4924921663
  0
ARC
  5
33B
330
1F
100
AcDbEntity
  8
0
  6
Continuous
 62
     7
370
    15
100
AcDbCircle
 10
-1616.5731906312
 20
249.6691341272
 30
0.0
 40
11.0029947298509
100
AcDbArc
 50
73.0713026623
 51
136.4110917707
  0
ARC
  5
33C
330
1F
100
AcDbEntity
  8
0
  6
Continuous
 62
     7
370
    15
100
AcDbCircle
 10
-1616.5107740494
 20
248.7303711541
 30
0.0
 40
11.40655693502008
100
AcDbArc
 50
270.8261641378
 51
351.1310984226
  0
ARC
  5
33D
330
1F
100
AcDbEntity
  8
0
  6
Continuous
 62
     7
370
    15
100
AcDbCircle
 10
-1616.3485019364
 20
249.7526017669
 30
0.0
 40
10.92239845395231
100
AcDbArc
 50
74.4367352854
 51
89.9884773919
  0
ARC
  5
33E
330
1F
100
AcDbEntity
  8
0
  6
Continuous
 62
     7
370
    15
100
AcDbCircle
 10
-1568.3572655851
 20
181.0
 30
0.0
 40
11.67904227700567
100
AcDbArc
 50
271.5075078337
 51
88.4924921663
  0
ARC
  5
33F
330
1F
100
AcDbEntity
  8
0
  6
Continuous
 62
     7
370
    15
100
AcDbCircle
 10
0.0
 20
0.0
 30
0.0
 40
90.00000000000007
100
AcDbArc
 50
117.2660444507
 51
62.7339555493
  0
ARC
  5
340
330
1F
100
AcDbEntity
  8
0
  6
Continuous
 62
     7
370
    15
100
AcDbCircle
 10
0.0
 20
430.0
 30
0.0
 40
90.0000000000001
100
AcDbArc
 50
297.2660444507
 51
242.7339555493
  0
ARC
  5
341
330
1F
100
AcDbEntity
  8
0
  6
Continuous
 62
     7
370
    15
100
AcDbCircle
 10
1131.9314811809
 20
186.5437308222
 30
0.0
 40
9.458800394690321
100
AcDbArc
 50
91.3255434468
 51
149.7069628842
  0
ARC
  5
342
330
1F
100
AcDbEntity
  8
0
  6
Continuous
 62
     7
370
    15
100
AcDbCircle
 10
1131.9314811809
 20
243.4562691778
 30
0.0
 40
9.458800394691611
100
AcDbArc
 50
210.2930371158
 51
268.6744565532
  0
ARC
  5
343
330
1F
100
AcDbEntity
  8
0
  6
Continuous
 62
     7
370
    15
100
AcDbCircle
 10
1162.0699836056
 20
175.8325317547
 30
0.0
 40
9.834060194314077
100
AcDbArc
 50
271.0101851092
 51
0.9757604995
  0
ARC
  5
344
330
1F
100
AcDbEntity
  8
0
  6
Continuous
 62
     7
370
    15
100
AcDbCircle
 10
1160.517069335
 20
175.8325317547
 30
0.0
 40
9.834060194313873
100
AcDbArc
 50
271.0101851092
 51
0.9757604995
  0
ARC
  5
345
330
1F
100
AcDbEntity
  8
0
  6
Continuous
 62
     7
370
    15
100
AcDbCircle
 10
1102.8245575832
 20
175.6655898665
 30
0.0
 40
9.666005727856092
100
AcDbArc
 50
201.5001786482
 51
269.4685163057
  0
ARC
  5
346
330
1F
100
AcDbEntity
  8
0
  6
Continuous
 62
     7
370
    15
100
AcDbCircle
 10
1102.8245575832
 20
254.3344101335
 30
0.0
 40
9.666005727855987
100
AcDbArc
 50
90.5314836943
 51
158.4998213518
  0
ARC
  5
347
330
1F
100
AcDbEntity
  8
0
  6
Continuous
 62
     7
370
    15
100
AcDbCircle
 10
1160.517069335
 20
254.1674682453
 30
0.0
 40
9.834060194313865
100
AcDbArc
 50
359.0242395005
 51
88.9898148908
  0
ARC
  5
348
330
1F
100
AcDbEntity
  8
0
  6
Continuous
 62
     7
370
    15
100
AcDbCircle
 10
1162.0699836056
 20
254.1674682453
 30
0.0
 40
9.834060194314063
100
AcDbArc
 50
359.0242395005
 51
88.9898148908
  0
ARC
  5
349
330
1F
100
AcDbEntity
  8
0
  6
Continuous
 62
     7
370
    15
100
AcDbCircle
 10
1498.9832951708
 20
186.5437308222
 30
0.0
 40
9.458800394689657
100
AcDbArc
 50
91.3255434468
 51
149.7069628842
  0
ARC
  5
34A
330
1F
100
AcDbEntity
  8
0
  6
Continuous
 62
     7
370
    15
100
AcDbCircle
 10
1498.9832951708
 20
243.4562691778
 30
0.0
 40
9.458800394690735
100
AcDbArc
 50
210.2930371158
 51
268.6744565532
  0
ARC
  5
34B
330
1F
100
AcDbEntity
  8
0
  6
Continuous
 62
     7
370
    15
100
AcDbCircle
 10
1527.5688833249
 20
175.8325317547
 30
0.0
 40
9.834060194314077
100
AcDbArc
 50
271.0101851092
 51
0.9757604995
  0
ARC
  5
34C
330
1F
100
AcDbEntity
  8
0
  6
Continuous
 62
     7
370
    15
100
AcDbCircle
 10
1469.8763715731
 20
175.6655898665
 30
0.0
 40
9.666005727857039
100
AcDbArc
 50
201.5001786482
 51
269.4685163057
  0
ARC
  5
34D
330
1F
100
AcDbEntity
  8
0
  6
Continuous
 62
     7
370
    15
100
AcDbCircle
 10
1469.8763715731
 20
254.3344101335
 30
0.0
 40
9.66600572785664
100
AcDbArc
 50
90.5314836943
 51
158.4998213518
  0
ARC
  5
34E
330
1F
100
AcDbEntity
  8
0
  6
Continuous
 62
     7
370
    15
100
AcDbCircle
 10
1527.5688833249
 20
254.1674682453
 30
0.0
 40
9.834060194314063
100
AcDbArc
 50
359.0242395005
 51
88.9898148908
  0
ARC
  5
34F
330
1F
100
AcDbEntity
  8
0
  6
Continuous
 62
     7
370
    15
100
AcDbCircle
 10
1529.1217975955
 20
175.8325317547
 30
0.0
 40
9.834060194314292
100
AcDbArc
 50
271.0101851092
 51
0.9757604995
  0
ARC
  5
350
330
1F
100
AcDbEntity
  8
0
  6
Continuous
 62
     7
370
    15
100
AcDbCircle
 10
1529.1217975955
 20
254.1674682453
 30
0.0
 40
9.834060194314288
100
AcDbArc
 50
359.0242395005
 51
88.9898148908
  0
ARC
  5
351
330
1F
100
AcDbEntity
  8
0
  6
Continuous
 62
     7
370
    15
100
AcDbCircle
 10
-1224.9275349644
 20
243.4562691778
 30
0.0
 40
9.458800394690538
100
AcDbArc
 50
210.2930371158
 51
268.6744565532
  0
ARC
  5
352
330
1F
100
AcDbEntity
  8
0
  6
Continuous
 62
     7
370
    15
100
AcDbCircle
 10
-1224.9275349644
 20
186.5437308222
 30
0.0
 40
9.458800394689629
100
AcDbArc
 50
91.3255434468
 51
149.7069628842
  0
ARC
  5
353
330
1F
100
AcDbEntity
  8
0
  6
Continuous
 62
     7
370
    15
100
AcDbCircle
 10
-1194.7890325397
 20
175.8325317547
 30
0.0
 40
9.834060194313667
100
AcDbArc
 50
271.0101851092
 51
0.9757604995
  0
ARC
  5
354
330
1F
100
AcDbEntity
  8
0
  6
Continuous
 62
     7
370
    15
100
AcDbCircle
 10
-1196.3419468103
 20
175.8325317547
 30
0.0
 40
9.834060194314162
100
AcDbArc
 50
271.0101851092
 51
0.9757604995
  0
ARC
  5
355
330
1F
100
AcDbEntity
  8
0
  6
Continuous
 62
     7
370
    15
100
AcDbCircle
 10
-1194.7890325397
 20
254.1674682453
 30
0.0
 40
9.834060194313604
100
AcDbArc
 50
359.0242395005
 51
88.9898148908
  0
ARC
  5
356
330
1F
100
AcDbEntity
  8
0
  6
Continuous
 62
     7
370
    15
100
AcDbCircle
 10
-1196.3419468103
 20
254.1674682453
 30
0.0
 40
9.834060194314304
100
AcDbArc
 50
359.0242395005
 51
88.9898148908
  0
ARC
  5
357
330
1F
100
AcDbEntity
  8
0
  6
Continuous
 62
     7
370
    15
100
AcDbCircle
 10
-1254.0344585621
 20
175.6655898665
 30
0.0
 40
9.66600572785666
100
AcDbArc
 50
201.5001786482
 51
269.4685163057
  0
ARC
  5
358
330
1F
100
AcDbEntity
  8
0
  6
Continuous
 62
     7
370
    15
100
AcDbCircle
 10
-1254.0344585621
 20
254.3344101335
 30
0.0
 40
9.66600572785666
100
AcDbArc
 50
90.5314836943
 51
158.4998213518
  0
ARC
  5
359
330
1F
100
AcDbEntity
  8
0
  6
Continuous
 62
     7
370
    15
100
AcDbCircle
 10
-1591.9793489542
 20
243.4562691778
 30
0.0
 40
9.45880039469126
100
AcDbArc
 50
210.2930371158
 51
268.6744565532
  0
ARC
  5
35A
330
1F
100
AcDbEntity
  8
0
  6
Continuous
 62
     7
370
    15
100
AcDbCircle
 10
-1591.9793489542
 20
186.5437308222
 30
0.0
 40
9.458800394689884
100
AcDbArc
 50
91.3255434468
 51
149.7069628842
  0
ARC
  5
35B
330
1F
100
AcDbEntity
  8
0
  6
Continuous
 62
     7
370
    15
100
AcDbCircle
 10
-1561.8408465295
 20
254.1674682453
 30
0.0
 40
9.834060194314064
100
AcDbArc
 50
359.0242395005
 51
88.9898148908
  0
ARC
  5
35C
330
1F
100
AcDbEntity
  8
0
  6
Continuous
 62
     7
370
    15
100
AcDbCircle
 10
-1563.3937608001
 20
254.1674682453
 30
0.0
 40
9.834060194314064
100
AcDbArc
 50
359.0242395005
 51
88.9898148908
  0
ARC
  5
35D
330
1F
100
AcDbEntity
  8
0
  6
Continuous
 62
     7
370
    15
100
AcDbCircle
 10
-1561.8408465295
 20
175.8325317547
 30
0.0
 40
9.834060194314066
100
AcDbArc
 50
271.0101851092
 51
0.9757604995
  0
ARC
  5
35E
330
1F
100
AcDbEntity
  8
0
  6
Continuous
 62
     7
370
    15
100
AcDbCircle
 10
-1563.3937608001
 20
175.8325317547
 30
0.0
 40
9.834060194314077
100
AcDbArc
 50
271.0101851092
 51
0.9757604995
  0
ARC
  5
35F
330
1F
100
AcDbEntity
  8
0
  6
Continuous
 62
     7
370
    15
100
AcDbCircle
 10
-1621.0862725519
 20
175.6655898665
 30
0.0
 40
9.666005727856032
100
AcDbArc
 50
201.5001786482
 51
269.4685163057
  0
ARC
  5
360
330
1F
100
AcDbEntity
  8
0
  6
Continuous
 62
     7
370
    15
100
AcDbCircle
 10
-1621.0862725519
 20
254.3344101335
 30
0.0
 40
9.666005727855975
100
AcDbArc
 50
90.5314836943
 51
158.4998213518
  0
ARC
  5
361
330
1F
100
AcDbEntity
  8
0
  6
Continuous
 62
     7
370
    15
100
AcDbCircle
 10
0.0
 20
18.0
 30
0.0
 40
108.6000000000006
100
AcDbArc
 50
253.2727574169
 51
286.7272425831
  0
ARC
  5
362
330
1F
100
AcDbEntity
  8
0
  6
Continuous
 62
     7
370
    15
100
AcDbCircle
 10
0.0
 20
18.0
 30
0.0
 40
108.0000000000013
100
AcDbArc
 50
253.2903706502
 51
286.7096293498
  0
ENDSEC
  0
SECTION
  2
OBJECTS
  0
DICTIONARY
  5
C
330
0
100
AcDbDictionary
281
     1
  3
ACAD_GROUP
350
D
  3
ACAD_LAYOUT
350
1A
  3
ACAD_MLINESTYLE
350
17
  3
ACAD_PLOTSETTINGS
350
19
  3
ACAD_PLOTSTYLENAME
350
E
  3
ACAD_SCALELIST
350
47
  0
DICTIONARY
  5
D
102
{ACAD_REACTORS
330
C
102
}
330
C
100
AcDbDictionary
281
     1
  0
DICTIONARY
  5
1A
102
{ACAD_REACTORS
330
C
102
}
330
C
100
AcDbDictionary
281
     1
  3
Layout1
350
1E
  3
Layout2
350
26
  3
Model
350
22
  0
DICTIONARY
  5
17
102
{ACAD_REACTORS
330
C
102
}
330
C
100
AcDbDictionary
281
     1
  3
Standard
350
18
  0
DICTIONARY
  5
19
102
{ACAD_REACTORS
330
C
102
}
330
C
100
AcDbDictionary
281
     1
  0
ACDBDICTIONARYWDFLT
  5
E
102
{ACAD_REACTORS
330
C
102
}
330
C
100
AcDbDictionary
281
     1
  3
Normal
350
F
100
AcDbDictionaryWithDefault
340
F
  0
DICTIONARY
  5
47
102
{ACAD_REACTORS
330
C
102
}
330
C
100
AcDbDictionary
281
     1
  3
A0
350
48
  3
A1
350
49
  3
A2
350
4A
  3
A3
350
4B
  3
A4
350
4C
  3
A5
350
4D
  3
A6
350
4E
  3
A7
350
4F
  3
A8
350
50
  3
A9
350
51
  3
B0
350
52
  3
B1
350
53
  3
B2
350
54
  3
B3
350
55
  3
B4
350
56
  3
B5
350
57
  3
B6
350
58
  3
B7
350
59
  3
B8
350
5A
  3
B9
350
5B
  3
C0
350
5C
  3
C1
350
5D
  3
C2
350
5E
  3
C3
350
5F
  3
C4
350
60
  3
C5
350
61
  3
C6
350
62
  3
C7
350
63
  3
C8
350
64
  3
C9
350
65
  3
D0
350
66
  3
D1
350
67
  3
D2
350
68
  0
LAYOUT
  5
1E
102
{ACAD_REACTORS
330
1A
102
}
330
1A
100
AcDbPlotSettings
  1

  2
none_device
  4

  6

 40
0.0
 41
0.0
 42
0.0
 43
0.0
 44
0.0
 45
0.0
 46
0.0
 47
0.0
 48
0.0
 49
0.0
140
0.0
141
0.0
142
1.0
143
1.0
 70
   688
 72
     1
 73
     0
 74
     5
  7

 75
    16
147
1.0
148
0.0
149
0.0
100
AcDbLayout
  1
Layout1
 70
     1
 71
     1
 10
0.0
 20
0.0
 11
420.0
 21
297.0
 12
0.0
 22
0.0
 32
0.0
 14
1.0000000000E+20
 24
1.0000000000E+20
 34
1.0000000000E+20
 15
-1.0000000000E+20
 25
-1.0000000000E+20
 35
-1.0000000000E+20
146
0.0
 13
0.0
 23
0.0
 33
0.0
 16
1.0
 26
0.0
 36
0.0
 17
0.0
 27
1.0
 37
0.0
 76
     0
330
1B
  0
LAYOUT
  5
26
102
{ACAD_REACTORS
330
1A
102
}
330
1A
100
AcDbPlotSettings
  1

  2
none_device
  4

  6

 40
0.0
 41
0.0
 42
0.0
 43
0.0
 44
0.0
 45
0.0
 46
0.0
 47
0.0
 48
0.0
 49
0.0
140
0.0
141
0.0
142
1.0
143
1.0
 70
   688
 72
     1
 73
     0
 74
     5
  7

 75
    16
147
1.0
148
0.0
149
0.0
100
AcDbLayout
  1
Layout2
 70
     1
 71
     2
 10
0.0
 20
0.0
 11
0.0
 21
0.0
 12
0.0
 22
0.0
 32
0.0
 14
0.0
 24
0.0
 34
0.0
 15
0.0
 25
0.0
 35
0.0
146
0.0
 13
0.0
 23
0.0
 33
0.0
 16
1.0
 26
0.0
 36
0.0
 17
0.0
 27
1.0
 37
0.0
 76
     0
330
23
  0
LAYOUT
  5
22
102
{ACAD_REACTORS
330
1A
102
}
330
1A
100
AcDbPlotSettings
  1

  2
none_device
  4
ANSI_A_(11.00_x_8.50_Inches)
  6

 40
6.35
 41
19.05
 42
6.35000508
 43
19.05000254
 44
279.4
 45
215.9
 46
133.34999746
 47
80.4042430157
 48
0.0
 49
0.0
140
0.0
141
0.0
142
0.0015557143
143
1.0
 70
  1696
 72
     0
 73
     0
 74
     0
  7

 75
     0
147
0.0179189148
148
-1300.4909072572
149
0.0
100
AcDbLayout
  1
Model
 70
     1
 71
     0
 10
0.0
 20
0.0
 11
420.0
 21
297.0
 12
0.0
 22
0.0
 32
0.0
 14
-3500.0
 24
-1596.0
 34
0.0
 15
3500.0
 25
2026.0
 35
0.0
146
0.0
 13
0.0
 23
0.0
 33
0.0
 16
1.0
 26
0.0
 36
0.0
 17
0.0
 27
1.0
 37
0.0
 76
     0
330
1F
331
29
  0
MLINESTYLE
  5
18
102
{ACAD_REACTORS
330
17
102
}
330
17
100
AcDbMlineStyle
  2
Standard
 70
     0
  3

 62
   256
 51
90.0
 52
90.0
 71
     2
 49
0.5
 62
   256
  6
BYLAYER
 49
-0.5
 62
   256
  6
BYLAYER
  0
ACDBPLACEHOLDER
  5
F
102
{ACAD_REACTORS
330
E
102
}
330
E
  0
SCALE
  5
48
102
{ACAD_REACTORS
330
47
102
}
330
47
100
AcDbScale
 70
     0
300
1:1
140
1.0
141
1.0
290
     1
  0
SCALE
  5
49
102
{ACAD_REACTORS
330
47
102
}
330
47
100
AcDbScale
 70
     0
300
1:2
140
1.0
141
2.0
290
     0
  0
SCALE
  5
4A
102
{ACAD_REACTORS
330
47
102
}
330
47
100
AcDbScale
 70
     0
300
1:4
140
1.0
141
4.0
290
     0
  0
SCALE
  5
4B
102
{ACAD_REACTORS
330
47
102
}
330
47
100
AcDbScale
 70
     0
300
1:5
140
1.0
141
5.0
290
     0
  0
SCALE
  5
4C
102
{ACAD_REACTORS
330
47
102
}
330
47
100
AcDbScale
 70
     0
300
1:8
140
1.0
141
8.0
290
     0
  0
SCALE
  5
4D
102
{ACAD_REACTORS
330
47
102
}
330
47
100
AcDbScale
 70
     0
300
1:10
140
1.0
141
10.0
290
     0
  0
SCALE
  5
4E
102
{ACAD_REACTORS
330
47
102
}
330
47
100
AcDbScale
 70
     0
300
1:16
140
1.0
141
16.0
290
     0
  0
SCALE
  5
4F
102
{ACAD_REACTORS
330
47
102
}
330
47
100
AcDbScale
 70
     0
300
1:20
140
1.0
141
20.0
290
     0
  0
SCALE
  5
50
102
{ACAD_REACTORS
330
47
102
}
330
47
100
AcDbScale
 70
     0
300
1:30
140
1.0
141
30.0
290
     0
  0
SCALE
  5
51
102
{ACAD_REACTORS
330
47
102
}
330
47
100
AcDbScale
 70
     0
300
1:40
140
1.0
141
40.0
290
     0
  0
SCALE
  5
52
102
{ACAD_REACTORS
330
47
102
}
330
47
100
AcDbScale
 70
     0
300
1:50
140
1.0
141
50.0
290
     0
  0
SCALE
  5
53
102
{ACAD_REACTORS
330
47
102
}
330
47
100
AcDbScale
 70
     0
300
1:100
140
1.0
141
100.0
290
     0
  0
SCALE
  5
54
102
{ACAD_REACTORS
330
47
102
}
330
47
100
AcDbScale
 70
     0
300
2:1
140
2.0
141
1.0
290
     0
  0
SCALE
  5
55
102
{ACAD_REACTORS
330
47
102
}
330
47
100
AcDbScale
 70
     0
300
4:1
140
4.0
141
1.0
290
     0
  0
SCALE
  5
56
102
{ACAD_REACTORS
330
47
102
}
330
47
100
AcDbScale
 70
     0
300
8:1
140
8.0
141
1.0
290
     0
  0
SCALE
  5
57
102
{ACAD_REACTORS
330
47
102
}
330
47
100
AcDbScale
 70
     0
300
10:1
140
10.0
141
1.0
290
     0
  0
SCALE
  5
58
102
{ACAD_REACTORS
330
47
102
}
330
47
100
AcDbScale
 70
     0
300
100:1
140
100.0
141
1.0
290
     0
  0
SCALE
  5
59
102
{ACAD_REACTORS
330
47
102
}
330
47
100
AcDbScale
 70
     0
300
1/128" = 1'-0"
140
0.0078125
141
12.0
290
     0
  0
SCALE
  5
5A
102
{ACAD_REACTORS
330
47
102
}
330
47
100
AcDbScale
 70
     0
300
1/64" = 1'-0"
140
0.015625
141
12.0
290
     0
  0
SCALE
  5
5B
102
{ACAD_REACTORS
330
47
102
}
330
47
100
AcDbScale
 70
     0
300
1/32" = 1'-0"
140
0.03125
141
12.0
290
     0
  0
SCALE
  5
5C
102
{ACAD_REACTORS
330
47
102
}
330
47
100
AcDbScale
 70
     0
300
1/16" = 1'-0"
140
0.0625
141
12.0
290
     0
  0
SCALE
  5
5D
102
{ACAD_REACTORS
330
47
102
}
330
47
100
AcDbScale
 70
     0
300
3/32" = 1'-0"
140
0.09375
141
12.0
290
     0
  0
SCALE
  5
5E
102
{ACAD_REACTORS
330
47
102
}
330
47
100
AcDbScale
 70
     0
300
1/8" = 1'-0"
140
0.125
141
12.0
290
     0
  0
SCALE
  5
5F
102
{ACAD_REACTORS
330
47
102
}
330
47
100
AcDbScale
 70
     0
300
3/16" = 1'-0"
140
0.1875
141
12.0
290
     0
  0
SCALE
  5
60
102
{ACAD_REACTORS
330
47
102
}
330
47
100
AcDbScale
 70
     0
300
1/4" = 1'-0"
140
0.25
141
12.0
290
     0
  0
SCALE
  5
61
102
{ACAD_REACTORS
330
47
102
}
330
47
100
AcDbScale
 70
     0
300
3/8" = 1'-0"
140
0.375
141
12.0
290
     0
  0
SCALE
  5
62
102
{ACAD_REACTORS
330
47
102
}
330
47
100
AcDbScale
 70
     0
300
1/2" = 1'-0"
140
0.5
141
12.0
290
     0
  0
SCALE
  5
63
102
{ACAD_REACTORS
330
47
102
}
330
47
100
AcDbScale
 70
     0
300
3/4" = 1'-0"
140
0.75
141
12.0
290
     0
  0
SCALE
  5
64
102
{ACAD_REACTORS
330
47
102
}
330
47
100
AcDbScale
 70
     0
300
1" = 1'-0"
140
1.0
141
12.0
290
     0
  0
SCALE
  5
65
102
{ACAD_REACTORS
330
47
102
}
330
47
100
AcDbScale
 70
     0
300
1-1/2" = 1'-0"
140
1.5
141
12.0
290
     0
  0
SCALE
  5
66
102
{ACAD_REACTORS
330
47
102
}
330
47
100
AcDbScale
 70
     0
300
3" = 1'-0"
140
3.0
141
12.0
290
     0
  0
SCALE
  5
67
102
{ACAD_REACTORS
330
47
102
}
330
47
100
AcDbScale
 70
     0
300
6" = 1'-0"
140
6.0
141
12.0
290
     0
  0
SCALE
  5
68
102
{ACAD_REACTORS
330
47
102
}
330
47
100
AcDbScale
 70
     0
300
1'-0" = 1'-0"
140
12.0
141
12.0
290
     0
  0
ENDSEC
  0
EOF
