  0
SECTION
  2
HEADER
  9
$ACADVER
  1
AC1015
  9
$ACADMAINTVER
 70
    20
  9
$DWGCODEPAGE
  3
ANSI_1251
  9
$INSBASE
 10
0.0
 20
0.0
 30
0.0
  9
$EXTMIN
 10
-2049.047540117149
 20
-2099.736854166527
 30
0.0
  9
$EXTMAX
 10
2150.952459882851
 20
2100.263145833473
 30
0.0
  9
$LIMMIN
 10
0.0
 20
0.0
  9
$LIMMAX
 10
420.0
 20
297.0
  9
$ORTHOMODE
 70
     0
  9
$REGENMODE
 70
     1
  9
$FILLMODE
 70
     1
  9
$QTEXTMODE
 70
     0
  9
$MIRRTEXT
 70
     1
  9
$LTSCALE
 40
1.0
  9
$ATTMODE
 70
     1
  9
$TEXTSIZE
 40
3.5
  9
$TRACEWID
 40
1.0
  9
$TEXTSTYLE
  7
Standard
  9
$CLAYER
  8
0
  9
$CELTYPE
  6
ByLayer
  9
$CECOLOR
 62
   256
  9
$CELTSCALE
 40
1.0
  9
$DISPSILH
 70
     0
  9
$DIMSCALE
 40
1.0
  9
$DIMASZ
 40
3.556
  9
$DIMEXO
 40
1.0
  9
$DIMDLI
 40
3.75
  9
$DIMRND
 40
0.0
  9
$DIMDLE
 40
0.0
  9
$DIMEXE
 40
1.0
  9
$DIMTP
 40
0.0
  9
$DIMTM
 40
0.0
  9
$DIMTXT
 40
3.5
  9
$DIMCEN
 40
2.5
  9
$DIMTSZ
 40
0.0
  9
$DIMTOL
 70
     0
  9
$DIMLIM
 70
     0
  9
$DIMTIH
 70
     1
  9
$DIMTOH
 70
     1
  9
$DIMSE1
 70
     0
  9
$DIMSE2
 70
     0
  9
$DIMTAD
 70
     1
  9
$DIMZIN
 70
     0
  9
$DIMBLK
  1

  9
$DIMASO
 70
     1
  9
$DIMSHO
 70
     1
  9
$DIMPOST
  1

  9
$DIMAPOST
  1

  9
$DIMALT
 70
     0
  9
$DIMALTD
 70
     3
  9
$DIMALTF
 40
0.0393700787401575
  9
$DIMLFAC
 40
1.0
  9
$DIMTOFL
 70
     1
  9
$DIMTVP
 40
0.0
  9
$DIMTIX
 70
     0
  9
$DIMSOXD
 70
     0
  9
$DIMSAH
 70
     0
  9
$DIMBLK1
  1

  9
$DIMBLK2
  1

  9
$DIMSTYLE
  2
ISO-25
  9
$DIMCLRD
 70
     0
  9
$DIMCLRE
 70
     0
  9
$DIMCLRT
 70
     0
  9
$DIMTFAC
 40
1.0
  9
$DIMGAP
 40
1.524
  9
$DIMJUST
 70
     0
  9
$DIMSD1
 70
     0
  9
$DIMSD2
 70
     0
  9
$DIMTOLJ
 70
     0
  9
$DIMTZIN
 70
     0
  9
$DIMALTZ
 70
     0
  9
$DIMALTTZ
 70
     0
  9
$DIMUPT
 70
     0
  9
$DIMDEC
 70
     2
  9
$DIMTDEC
 70
     2
  9
$DIMALTU
 70
     2
  9
$DIMALTTD
 70
     3
  9
$DIMTXSTY
  7
Standard
  9
$DIMAUNIT
 70
     0
  9
$DIMADEC
 70
     2
  9
$DIMALTRND
 40
0.0
  9
$DIMAZIN
 70
     0
  9
$DIMDSEP
 70
    44
  9
$DIMATFIT
 70
     3
  9
$DIMFRAC
 70
     0
  9
$DIMLDRBLK
  1

  9
$DIMLUNIT
 70
     2
  9
$DIMLWD
 70
    -2
  9
$DIMLWE
 70
    -2
  9
$DIMTMOVE
 70
     0
  9
$LUNITS
 70
     2
  9
$LUPREC
 70
     2
  9
$SKETCHINC
 40
1.0
  9
$FILLETRAD
 40
10.0
  9
$AUNITS
 70
     0
  9
$AUPREC
 70
     2
  9
$MENU
  1
.
  9
$ELEVATION
 40
0.0
  9
$PELEVATION
 40
0.0
  9
$THICKNESS
 40
0.0
  9
$LIMCHECK
 70
     0
  9
$CHAMFERA
 40
0.0
  9
$CHAMFERB
 40
0.0
  9
$CHAMFERC
 40
0.0
  9
$CHAMFERD
 40
0.0
  9
$SKPOLY
 70
     0
  9
$TDCREATE
 40
2459087.670011574
  9
$TDUCREATE
 40
2459087.545015185
  9
$TDUPDATE
 40
2459771.950219908
  9
$TDUUPDATE
 40
2459771.825219907
  9
$TDINDWG
 40
0.0057986227
  9
$TDUSRTIMER
 40
0.0057986227
  9
$USRTIMER
 70
     1
  9
$ANGBASE
 50
0.0
  9
$ANGDIR
 70
     0
  9
$PDMODE
 70
     0
  9
$PDSIZE
 40
-1.0
  9
$PLINEWID
 40
0.0
  9
$SPLFRAME
 70
     0
  9
$SPLINETYPE
 70
     6
  9
$SPLINESEGS
 70
     8
  9
$HANDSEED
  5
35C
  9
$SURFTAB1
 70
     6
  9
$SURFTAB2
 70
     6
  9
$SURFTYPE
 70
     6
  9
$SURFU
 70
     6
  9
$SURFV
 70
     6
  9
$UCSBASE
  2

  9
$UCSNAME
  2

  9
$UCSORG
 10
0.0
 20
0.0
 30
0.0
  9
$UCSXDIR
 10
1.0
 20
0.0
 30
0.0
  9
$UCSYDIR
 10
0.0
 20
1.0
 30
0.0
  9
$UCSORTHOREF
  2

  9
$UCSORTHOVIEW
 70
     0
  9
$UCSORGTOP
 10
0.0
 20
0.0
 30
0.0
  9
$UCSORGBOTTOM
 10
0.0
 20
0.0
 30
0.0
  9
$UCSORGLEFT
 10
0.0
 20
0.0
 30
0.0
  9
$UCSORGRIGHT
 10
0.0
 20
0.0
 30
0.0
  9
$UCSORGFRONT
 10
0.0
 20
0.0
 30
0.0
  9
$UCSORGBACK
 10
0.0
 20
0.0
 30
0.0
  9
$PUCSBASE
  2

  9
$PUCSNAME
  2

  9
$PUCSORG
 10
0.0
 20
0.0
 30
0.0
  9
$PUCSXDIR
 10
1.0
 20
0.0
 30
0.0
  9
$PUCSYDIR
 10
0.0
 20
1.0
 30
0.0
  9
$PUCSORTHOREF
  2

  9
$PUCSORTHOVIEW
 70
     0
  9
$PUCSORGTOP
 10
0.0
 20
0.0
 30
0.0
  9
$PUCSORGBOTTOM
 10
0.0
 20
0.0
 30
0.0
  9
$PUCSORGLEFT
 10
0.0
 20
0.0
 30
0.0
  9
$PUCSORGRIGHT
 10
0.0
 20
0.0
 30
0.0
  9
$PUCSORGFRONT
 10
0.0
 20
0.0
 30
0.0
  9
$PUCSORGBACK
 10
0.0
 20
0.0
 30
0.0
  9
$USERI1
 70
     0
  9
$USERI2
 70
     0
  9
$USERI3
 70
     0
  9
$USERI4
 70
     0
  9
$USERI5
 70
     0
  9
$USERR1
 40
0.0
  9
$USERR2
 40
0.0
  9
$USERR3
 40
0.0
  9
$USERR4
 40
0.0
  9
$USERR5
 40
0.0
  9
$WORLDVIEW
 70
     1
  9
$SHADEDGE
 70
     3
  9
$SHADEDIF
 70
    70
  9
$TILEMODE
 70
     1
  9
$MAXACTVP
 70
    64
  9
$PINSBASE
 10
0.0
 20
0.0
 30
0.0
  9
$PLIMCHECK
 70
     0
  9
$PEXTMIN
 10
1.000000000000000E+20
 20
1.000000000000000E+20
 30
1.000000000000000E+20
  9
$PEXTMAX
 10
-1.000000000000000E+20
 20
-1.000000000000000E+20
 30
-1.000000000000000E+20
  9
$PLIMMIN
 10
0.0
 20
0.0
  9
$PLIMMAX
 10
420.0
 20
297.0
  9
$UNITMODE
 70
     0
  9
$VISRETAIN
 70
     1
  9
$PLINEGEN
 70
     0
  9
$PSLTSCALE
 70
     1
  9
$TREEDEPTH
 70
  3020
  9
$CMLSTYLE
  2
Standard
  9
$CMLJUST
 70
     0
  9
$CMLSCALE
 40
20.0
  9
$PROXYGRAPHICS
 70
     1
  9
$MEASUREMENT
 70
     1
  9
$CELWEIGHT
370
    -1
  9
$ENDCAPS
280
     0
  9
$JOINSTYLE
280
     0
  9
$LWDISPLAY
290
     1
  9
$INSUNITS
 70
     4
  9
$HYPERLINKBASE
  1

  9
$STYLESHEET
  1

  9
$XEDIT
290
     1
  9
$CEPSNTYPE
380
     0
  9
$PSTYLEMODE
290
     1
  9
$FINGERPRINTGUID
  2
{E69F9DB1-AF4D-4E7A-997F-BC8156D333E1}
  9
$VERSIONGUID
  2
{D71B6DC3-7BB3-7143-B0E7-A052A947E379}
  9
$EXTNAMES
290
     1
  9
$PSVPSCALE
 40
0.0
  9
$OLESTARTUP
290
     0
  0
ENDSEC
  0
SECTION
  2
CLASSES
  0
CLASS
  1
ACDBDICTIONARYWDFLT
  2
AcDbDictionaryWithDefault
  3
ObjectDBX Classes
 90
        0
280
     0
281
     0
  0
CLASS
  1
VISUALSTYLE
  2
AcDbVisualStyle
  3
ObjectDBX Classes
 90
     4095
280
     0
281
     0
  0
CLASS
  1
MATERIAL
  2
AcDbMaterial
  3
ObjectDBX Classes
 90
     1153
280
     0
281
     0
  0
CLASS
  1
SCALE
  2
AcDbScale
  3
ObjectDBX Classes
 90
     1153
280
     0
281
     0
  0
CLASS
  1
TABLESTYLE
  2
AcDbTableStyle
  3
ObjectDBX Classes
 90
     4095
280
     0
281
     0
  0
CLASS
  1
MLEADERSTYLE
  2
AcDbMLeaderStyle
  3
ACDB_MLEADERSTYLE_CLASS
 90
     4095
280
     0
281
     0
  0
CLASS
  1
SUN
  2
AcDbSun
  3
SCENEOE
 90
    33921
280
     0
281
     0
  0
CLASS
  1
ACDBPLACEHOLDER
  2
AcDbPlaceHolder
  3
ObjectDBX Classes
 90
        0
280
     0
281
     0
  0
CLASS
  1
LAYOUT
  2
AcDbLayout
  3
ObjectDBX Classes
 90
        0
280
     0
281
     0
  0
CLASS
  1
ACDBSECTIONVIEWSTYLE
  2
AcDbSectionViewStyle
  3
ObjectDBX Classes
 90
     1025
280
     0
281
     0
  0
CLASS
  1
ACDBDETAILVIEWSTYLE
  2
AcDbDetailViewStyle
  3
ObjectDBX Classes
 90
     1025
280
     0
281
     0
  0
CLASS
  1
DICTIONARYVAR
  2
AcDbDictionaryVar
  3
ObjectDBX Classes
 90
        0
280
     0
281
     0
  0
CLASS
  1
CELLSTYLEMAP
  2
AcDbCellStyleMap
  3
ObjectDBX Classes
 90
     1152
280
     0
281
     0
  0
ENDSEC
  0
SECTION
  2
TABLES
  0
TABLE
  2
VPORT
  5
8
330
0
100
AcDbSymbolTable
 70
     1
  0
VPORT
  5
29
330
8
100
AcDbSymbolTableRecord
100
AcDbViewportTableRecord
  2
*Active
 70
     0
 10
0.0
 20
0.0
 11
1.0
 21
1.0
 12
5476.9599787333
 22
-806.6237563171197
 13
0.0
 23
0.0
 14
10.0
 24
10.0
 15
10.0
 25
10.0
 16
0.0
 26
0.0
 36
1.0
 17
0.0
 27
0.0
 37
0.0
 40
13843.87819416517
 41
1.806451612903225
 42
50.0
 43
0.0
 44
0.0
 50
0.0
 51
0.0
 71
     0
 72
   100
 73
     1
 74
     3
 75
     0
 76
     0
 77
     0
 78
     0
281
     0
 65
     1
110
0.0
120
0.0
130
0.0
111
1.0
121
0.0
131
0.0
112
0.0
122
1.0
132
0.0
 79
     0
146
0.0
1001
ACAD_NAV_VCDISPLAY
1070
     3
  0
ENDTAB
  0
TABLE
  2
LTYPE
  5
5
330
0
100
AcDbSymbolTable
 70
     7
  0
LTYPE
  5
14
330
5
100
AcDbSymbolTableRecord
100
AcDbLinetypeTableRecord
  2
ByBlock
 70
     0
  3

 72
    65
 73
     0
 40
0.0
  0
LTYPE
  5
15
330
5
100
AcDbSymbolTableRecord
100
AcDbLinetypeTableRecord
  2
ByLayer
 70
     0
  3

 72
    65
 73
     0
 40
0.0
  0
LTYPE
  5
16
330
5
100
AcDbSymbolTableRecord
100
AcDbLinetypeTableRecord
  2
Continuous
 70
     0
  3
Solid line
 72
    65
 73
     0
 40
0.0
  0
LTYPE
  5
6E
330
5
100
AcDbSymbolTableRecord
100
AcDbLinetypeTableRecord
  2
HIDDEN
 70
     0
  3
Hidden __ __ __ __ __ __ __ __ __ __ __ __ __ __
 72
    65
 73
     2
 40
1.905
 49
1.27
 74
     0
 49
-0.635
 74
     0
  0
LTYPE
  5
6F
330
5
100
AcDbSymbolTableRecord
100
AcDbLinetypeTableRecord
  2
PHANTOM
 70
     0
  3
Phantom ______  __  __  ______  __  __  ______
 72
    65
 73
     6
 40
12.7
 49
6.349999999999998
 74
     0
 49
-1.27
 74
     0
 49
1.27
 74
     0
 49
-1.27
 74
     0
 49
1.27
 74
     0
 49
-1.27
 74
     0
  0
LTYPE
  5
70
330
5
100
AcDbSymbolTableRecord
100
AcDbLinetypeTableRecord
  2
CENTER
 70
     0
  3
Center ____ _ ____ _ ____ _ ____ _ ____ _ ____
 72
    65
 73
     4
 40
10.16
 49
6.349999999999998
 74
     0
 49
-1.27
 74
     0
 49
1.27
 74
     0
 49
-1.27
 74
     0
  0
LTYPE
  5
71
330
5
100
AcDbSymbolTableRecord
100
AcDbLinetypeTableRecord
  2
CENTERX2
 70
     0
  3
Center (2x) ________  __  ________  __  _____
 72
    65
 73
     4
 40
20.32
 49
12.7
 74
     0
 49
-2.54
 74
     0
 49
2.54
 74
     0
 49
-2.54
 74
     0
  0
LTYPE
  5
72
330
5
100
AcDbSymbolTableRecord
100
AcDbLinetypeTableRecord
  2
DOT2
 70
     0
  3
Dot (.5x) ........................................
 72
    65
 73
     2
 40
0.635
 49
0.0
 74
     0
 49
-0.635
 74
     0
  0
ENDTAB
  0
TABLE
  2
LAYER
  5
2
330
0
100
AcDbSymbolTable
 70
     2
  0
LAYER
  5
10
102
{ACAD_XDICTIONARY
360
2AE
102
}
330
2
100
AcDbSymbolTableRecord
100
AcDbLayerTableRecord
  2
0
 70
     0
 62
     7
  6
Continuous
370
    -3
390
F
  0
LAYER
  5
318
330
2
100
AcDbSymbolTableRecord
100
AcDbLayerTableRecord
  2
Зоны приземления
 70
     0
 62
     1
  6
Continuous
370
    -3
390
F
1001
AcAecLayerStandard
1000

1000

1001
AcCmTransparency
1071
        0
  0
ENDTAB
  0
TABLE
  2
STYLE
  5
3
330
0
100
AcDbSymbolTable
 70
     1
  0
STYLE
  5
11
330
3
100
AcDbSymbolTableRecord
100
AcDbTextStyleTableRecord
  2
Standard
 70
     0
 40
0.0
 41
1.0
 50
0.0
 71
     0
 42
3.5
  3
txt
  4

  0
ENDTAB
  0
TABLE
  2
VIEW
  5
6
330
0
100
AcDbSymbolTable
 70
     0
  0
ENDTAB
  0
TABLE
  2
UCS
  5
7
330
0
100
AcDbSymbolTable
 70
     0
  0
ENDTAB
  0
TABLE
  2
APPID
  5
9
330
0
100
AcDbSymbolTable
 70
     6
  0
APPID
  5
12
330
9
100
AcDbSymbolTableRecord
100
AcDbRegAppTableRecord
  2
ACAD
 70
     0
  0
APPID
  5
2A6
330
9
100
AcDbSymbolTableRecord
100
AcDbRegAppTableRecord
  2
ACAD_EXEMPT_FROM_CAD_STANDARDS
 70
     0
  0
APPID
  5
2B0
330
9
100
AcDbSymbolTableRecord
100
AcDbRegAppTableRecord
  2
ACAD_NAV_VCDISPLAY
 70
     0
  0
APPID
  5
307
330
9
100
AcDbSymbolTableRecord
100
AcDbRegAppTableRecord
  2
ACAD_MLEADERVER
 70
     0
  0
APPID
  5
319
330
9
100
AcDbSymbolTableRecord
100
AcDbRegAppTableRecord
  2
AcAecLayerStandard
 70
     0
  0
APPID
  5
31A
330
9
100
AcDbSymbolTableRecord
100
AcDbRegAppTableRecord
  2
AcCmTransparency
 70
     0
  0
ENDTAB
  0
TABLE
  2
DIMSTYLE
  5
A
330
0
100
AcDbSymbolTable
 70
     2
100
AcDbDimStyleTable
 71
     1
340
27
  0
DIMSTYLE
105
27
330
A
100
AcDbSymbolTableRecord
100
AcDbDimStyleTableRecord
  2
ISO-25
 70
     0
 41
2.5
 42
0.625
 43
3.75
 44
1.25
 73
     0
 74
     0
 77
     1
 78
     8
140
2.5
141
2.5
143
0.03937007874016
147
0.625
171
     3
172
     1
271
     2
272
     2
274
     3
278
    44
283
     0
284
     8
340
11
  0
ENDTAB
  0
TABLE
  2
BLOCK_RECORD
  5
1
330
0
100
AcDbSymbolTable
 70
     2
  0
BLOCK_RECORD
  5
1F
330
1
100
AcDbSymbolTableRecord
100
AcDbBlockTableRecord
  2
*Model_Space
340
22
  0
BLOCK_RECORD
  5
1B
330
1
100
AcDbSymbolTableRecord
100
AcDbBlockTableRecord
  2
*Paper_Space
340
1E
  0
BLOCK_RECORD
  5
23
330
1
100
AcDbSymbolTableRecord
100
AcDbBlockTableRecord
  2
*Paper_Space0
340
26
  0
ENDTAB
  0
ENDSEC
  0
SECTION
  2
BLOCKS
  0
BLOCK
  5
20
330
1F
100
AcDbEntity
  8
0
100
AcDbBlockBegin
  2
*Model_Space
 70
     0
 10
0.0
 20
0.0
 30
0.0
  3
*Model_Space
  1

  0
ENDBLK
  5
21
330
1F
100
AcDbEntity
  8
0
100
AcDbBlockEnd
  0
BLOCK
  5
1C
330
1B
100
AcDbEntity
 67
     1
  8
0
100
AcDbBlockBegin
  2
*Paper_Space
 70
     0
 10
0.0
 20
0.0
 30
0.0
  3
*Paper_Space
  1

  0
ENDBLK
  5
1D
330
1B
100
AcDbEntity
 67
     1
  8
0
100
AcDbBlockEnd
  0
BLOCK
  5
24
330
23
100
AcDbEntity
 67
     1
  8
0
100
AcDbBlockBegin
  2
*Paper_Space0
 70
     0
 10
0.0
 20
0.0
 30
0.0
  3
*Paper_Space0
  1

  0
ENDBLK
  5
25
330
23
100
AcDbEntity
 67
     1
  8
0
100
AcDbBlockEnd
  0
ENDSEC
  0
SECTION
  2
ENTITIES
  0
SPLINE
  5
73
330
1F
100
AcDbEntity
  8
0
  6
Continuous
 62
     7
370
    25
100
AcDbSpline
210
0.0
220
0.0
230
1.0
 70
     8
 71
     3
 72
    30
 73
    26
 74
     0
 42
0.000000001
 43
0.0000000001
 40
0.0
 40
0.0
 40
0.0
 40
0.0
 40
0.0437858870492794
 40
0.0897421081624776
 40
0.1358447130326573
 40
0.1820994144423961
 40
0.2285133608964907
 40
0.2750953705826698
 40
0.3218562399980981
 40
0.3688091535046271
 40
0.4159702323532902
 40
0.4633592808714381
 40
0.5110008182681973
 40
0.5589255355265628
 40
0.6019652968426651
 40
0.6449835247534975
 40
0.6879706051298369
 40
0.7309185970594019
 40
0.7738164304269666
 40
0.8166481681751818
 40
0.8593899436775938
 40
0.9020042347270836
 40
0.9444283114874576
 40
0.9865485435095038
 40
0.9999999999999998
 40
0.9999999999999998
 40
0.9999999999999998
 40
0.9999999999999998
 10
97.64451881409586
 20
-102.0082663902274
 30
0.0
 10
99.45579588212652
 20
-101.8059901441415
 30
0.0
 10
103.1681295472747
 20
-101.3914114298972
 30
0.0
 10
108.7320414792922
 20
-100.3665203480883
 30
0.0
 10
114.3333938634902
 20
-99.0326604021676
 30
0.0
 10
119.8681810434889
 20
-97.37367818460592
 30
0.0
 10
125.3196255982273
 20
-95.4001579969687
 30
0.0
 10
130.6699343807081
 20
-93.11240811027685
 30
0.0
 10
135.901747623067
 20
-90.51448947427685
 30
0.0
 10
140.9978048652837
 20
-87.61035989209956
 30
0.0
 10
145.9410850640897
 20
-84.40481402338459
 30
0.0
 10
150.7148240464192
 20
-80.90308786594333
 30
0.0
 10
155.3025235643124
 20
-77.1108162798273
 30
0.0
 10
159.5293002878387
 20
-73.18130018753355
 30
0.0
 10
163.3979802015565
 20
-69.16296240956525
 30
0.0
 10
166.9162603469981
 20
-65.1027760428978
 30
0.0
 10
170.2147655691745
 20
-60.86697885084217
 30
0.0
 10
173.2843192835897
 20
-56.46853960238885
 30
0.0
 10
176.1162948359961
 20
-51.92116701407192
 30
0.0
 10
178.7032944709684
 20
-47.23980179108847
 30
0.0
 10
181.0363874193499
 20
-42.44031948798457
 30
0.0
 10
183.115338574017
 20
-37.54295456847749
 30
0.0
 10
184.910482140023
 20
-32.56432459992014
 30
0.0
 10
186.1479536345272
 20
-28.67442294237327
 30
0.0
 10
186.6999958590012
 20
-26.42853474211243
 30
0.0
 10
186.8336209505216
 20
-25.88490419539064
 30
0.0
  0
SPLINE
  5
74
330
1F
100
AcDbEntity
  8
0
  6
Continuous
 62
     7
370
    25
100
AcDbSpline
210
0.0
220
0.0
230
1.0
 70
     8
 71
     3
 72
    32
 73
    28
 74
     0
 42
0.000000001
 43
0.0000000001
 40
0.0
 40
0.0
 40
0.0
 40
0.0
 40
0.0164435587859888
 40
0.053526237734972
 40
0.0915744684267357
 40
0.1304022277242416
 40
0.1698719183382459
 40
0.2098798789713312
 40
0.2503465124746198
 40
0.2912096572965232
 40
0.3324200320813708
 40
0.373938045683621
 40
0.4157315225792935
 40
0.4577740537264475
 40
0.5000437826281419
 40
0.5425224995370537
 40
0.5851949574739771
 40
0.6280483504606086
 40
0.6710719122004033
 40
0.714256605548581
 40
0.7575948814655568
 40
0.8010804920089144
 40
0.8447083461044769
 40
0.8884743998802962
 40
0.9323755756180259
 40
0.9764097051093385
 40
1.0
 40
1.0
 40
1.0
 40
1.0
 10
-12.20596097260168
 20
-22.86247572189441
 30
0.0
 10
-12.05487355382057
 20
-23.54745663902126
 30
0.0
 10
-11.56306145878113
 20
-25.77717174456717
 30
0.0
 10
-10.49728649657716
 20
-29.53787270204786
 30
0.0
 10
-8.99775557476623
 20
-34.16252740397233
 30
0.0
 10
-7.229652167229392
 20
-38.80192531875773
 30
0.0
 10
-5.206805920641524
 20
-43.4269693212324
 30
0.0
 10
-2.924946260540489
 20
-48.00840044427694
 30
0.0
 10
-0.3869842056437727
 20
-52.52140308653192
 30
0.0
 10
2.404221298072945
 20
-56.94319597183017
 30
0.0
 10
5.444082868136703
 20
-61.25293804209356
 30
0.0
 10
8.72692176669835
 20
-65.43125383768437
 30
0.0
 10
12.2459135483207
 20
-69.46002901572383
 30
0.0
 10
15.99320055128686
 20
-73.32224381463309
 30
0.0
 10
19.95994511241512
 20
-77.00187186211038
 30
0.0
 10
24.13638968013789
 20
-80.48381361145906
 30
0.0
 10
28.51190931093836
 20
-83.75385564081492
 30
0.0
 10
33.07506230842706
 20
-86.79865163544624
 30
0.0
 10
37.8136406330116
 20
-89.60570200402122
 30
0.0
 10
42.7147146047432
 20
-92.16339487243727
 30
0.0
 10
47.76469701582992
 20
-94.4608548657318
 30
0.0
 10
52.94933435224689
 20
-96.48853824201829
 30
0.0
 10
58.2539729020142
 20
-98.23604376060362
 30
0.0
 10
63.66279619477992
 20
-99.70037381203413
 30
0.0
 10
69.16192247227761
 20
-100.8550109108989
 30
0.0
 10
73.86107892637676
 20
-101.6240332287289
 30
0.0
 10
76.73409547673748
 20
-101.8857329696517
 30
0.0
 10
77.73632667157818
 20
-101.9770250452235
 30
0.0
  0
SPLINE
  5
76
330
1F
100
AcDbEntity
  8
0
  6
Continuous
 62
     7
370
    25
100
AcDbSpline
210
0.0
220
0.0
230
1.0
 70
     8
 71
     3
 72
    11
 73
     7
 74
     0
 42
0.000000001
 43
0.0000000001
 40
0.0
 40
0.0
 40
0.0
 40
0.0
 40
0.0068877878979216
 40
0.3273955601849545
 40
0.6709540289549714
 40
1.0
 40
1.0
 40
1.0
 40
1.0
 10
45.97455925347547
 20
-13.34553485724811
 30
0.0
 10
45.95883328205204
 20
-13.31934462241723
 30
0.0
 10
45.21133447692935
 20
-12.07445050969073
 30
0.0
 10
44.18557350641036
 20
-9.244055368192613
 30
0.0
 10
43.00258360320241
 20
-4.971080344511965
 30
0.0
 10
42.85876605325
 20
-1.968766904729872
 30
0.0
 10
42.78840882309196
 20
-0.5000000000001129
 30
0.0
  0
SPLINE
  5
7B
330
1F
100
AcDbEntity
  8
0
  6
Continuous
 62
     7
370
    25
100
AcDbSpline
210
0.0
220
0.0
230
1.0
 70
     8
 71
     3
 72
    30
 73
    26
 74
     0
 42
0.000000001
 43
0.0000000001
 40
0.0
 40
0.0
 40
0.0
 40
0.0
 40
0.0428735173337458
 40
0.0877341922884749
 40
0.1327377613712088
 40
0.1778898011779245
 40
0.2231972898009498
 40
0.2686688352120022
 40
0.3143149765315818
 40
0.3601485838206443
 40
0.4061853940172049
 40
0.4524447393351526
 40
0.4989505544723964
 40
0.5457327987723455
 40
0.587746539148712
 40
0.6297392594526352
 40
0.6717015747453676
 40
0.7136257334172416
 40
0.7555009292526184
 40
0.7973116051159451
 40
0.8390344633353072
 40
0.8806328761919427
 40
0.9220456092605211
 40
0.963161740917773
 40
1.0
 40
1.0
 40
1.0
 40
1.0
 10
77.74343118129768
 20
102.0103246302526
 30
0.0
 10
75.92657990611235
 20
101.8074569023591
 30
0.0
 10
72.20866756652437
 20
101.3923186688995
 30
0.0
 10
66.63922139974136
 20
100.3665501102063
 30
0.0
 10
61.03787429533256
 20
99.03265238834773
 30
0.0
 10
55.50308569362941
 20
97.37368034281551
 30
0.0
 10
50.05164152179204
 20
95.40015741554128
 30
0.0
 10
44.70133263618461
 20
93.11240826689427
 30
0.0
 10
39.46951942151666
 20
90.5144894320214
 30
0.0
 10
34.3734621722247
 20
87.610359903351
 30
0.0
 10
29.43018197389754
 20
84.40481402058756
 30
0.0
 10
24.65644299686183
 20
80.90308786549227
 30
0.0
 10
20.06874345719078
 20
77.11081628418256
 30
0.0
 10
15.84196681324165
 20
73.1813001709023
 30
0.0
 10
11.97328663112214
 20
69.16296246457595
 30
0.0
 10
8.455007463230316
 20
65.1027758367846
 30
0.0
 10
5.156498593359912
 20
60.86697961917913
 30
0.0
 10
2.086958474015749
 20
56.46853673890702
 30
0.0
 10
-0.7450677235190523
 20
51.92117768003035
 30
0.0
 10
-3.331878806431931
 20
47.23976208684631
 30
0.0
 10
-5.665673094963795
 20
42.44046714122103
 30
0.0
 10
-7.742019350805553
 20
37.54240634355924
 30
0.0
 10
-9.546813645939627
 20
32.56635449107351
 30
0.0
 10
-11.05647078508042
 20
27.70319680375863
 30
0.0
 10
-11.83436352378369
 20
24.4716745095464
 30
0.0
 10
-12.20196583552906
 20
22.94458085420601
 30
0.0
  0
SPLINE
  5
7C
330
1F
100
AcDbEntity
  8
0
  6
Continuous
 62
     7
370
    25
100
AcDbSpline
210
0.0
220
0.0
230
1.0
 70
     8
 71
     3
 72
    31
 73
    27
 74
     0
 42
0.000000001
 43
0.0000000001
 40
0.0
 40
0.0
 40
0.0
 40
0.0
 40
0.030176791395892
 40
0.069170311327386
 40
0.1089627268626059
 40
0.14941302217631
 40
0.1904149605583112
 40
0.2318869673082323
 40
0.2737653365018111
 40
0.3159995624129636
 40
0.3585490702739304
 40
0.4013808851759949
 40
0.4444679419576066
 40
0.487787841108132
 40
0.531321920468248
 40
0.5750545542553068
 40
0.6189726183327469
 40
0.6630650789207646
 40
0.7073226743513306
 40
0.7517376680327469
 40
0.7963036567956295
 40
0.841015423080451
 40
0.8858688225474299
 40
0.9308607010137727
 40
0.9759888364031535
 40
1.0
 40
1.0
 40
1.0
 40
1.0
 10
186.8521608056588
 20
25.85667367100846
 30
0.0
 10
186.5292535754688
 20
27.07060170314104
 30
0.0
 10
185.7890955729469
 20
29.8531301307022
 30
0.0
 10
184.3626521215009
 20
34.16091782474208
 30
0.0
 10
182.6026716384211
 20
38.80236809131984
 30
0.0
 10
180.5775931601088
 20
43.42684809437532
 30
0.0
 10
178.2963442017692
 20
48.00843351836364
 30
0.0
 10
175.7582156265988
 20
52.52139408732929
 30
0.0
 10
172.9670554119325
 20
56.94319841543343
 30
0.0
 10
169.9271815490241
 20
61.25293737976228
 30
0.0
 10
166.6443459818374
 20
65.43125401707122
 30
0.0
 10
163.1253532985432
 20
69.46002896728773
 30
0.0
 10
159.3780665393634
 20
73.32224382782701
 30
0.0
 10
155.4113219123614
 20
77.00187185851973
 30
0.0
 10
151.2348773624794
 20
80.48381361287548
 30
0.0
 10
146.8593577266558
 20
83.75385563905679
 30
0.0
 10
142.2962047313095
 20
86.79865164136158
 30
0.0
 10
137.5576264031884
 20
89.60570198224166
 30
0.0
 10
132.6565524435235
 20
92.16339495426394
 30
0.0
 10
127.6065699874912
 20
94.46085455889654
 30
0.0
 10
122.4219328195631
 20
96.48853939304331
 30
0.0
 10
117.1172936379094
 20
98.23603944414459
 30
0.0
 10
111.7084727145507
 20
99.70038999738845
 30
0.0
 10
106.2093375533491
 20
100.8549502280782
 30
0.0
 10
101.5170020089967
 20
101.6231038336245
 30
0.0
 10
98.65084627383312
 20
101.8842801529037
 30
0.0
 10
97.65546831570885
 20
101.9749832323648
 30
0.0
  0
SPLINE
  5
7E
330
1F
100
AcDbEntity
  8
0
  6
Continuous
 62
     7
370
    25
100
AcDbSpline
210
0.0
220
0.0
230
1.0
 70
     8
 71
     3
 72
     9
 73
     5
 74
     0
 42
0.000000001
 43
0.0000000001
 40
0.0
 40
0.0
 40
0.0
 40
0.0
 40
0.9336671076208098
 40
0.9999999999999998
 40
0.9999999999999998
 40
0.9999999999999998
 40
0.9999999999999998
 10
42.7663399447693
 20
0.2375973009540217
 30
0.0
 10
42.78093271920258
 20
1.805036242828301
 30
0.0
 10
42.79656224530899
 20
3.483834745078703
 30
0.0
 10
43.20989668713171
 20
5.094324987074731
 30
0.0
 10
43.23731435617776
 20
5.20115346297479
 30
0.0
  0
SPLINE
  5
7F
330
1F
100
AcDbEntity
  8
0
  6
Continuous
 62
     7
370
    25
100
AcDbSpline
210
0.0
220
0.0
230
1.0
 70
     8
 71
     3
 72
     9
 73
     5
 74
     0
 42
0.000000001
 43
0.0000000001
 40
0.0
 40
0.0
 40
0.0
 40
0.0
 40
0.2003256089877045
 40
1.0
 40
1.0
 40
1.0
 40
1.0
 10
49.72702087794059
 20
18.88813780587832
 30
0.0
 10
49.89091179785607
 20
19.09978387329223
 30
0.0
 10
50.70903445697925
 20
20.1562941641303
 30
0.0
 10
51.70533373843827
 20
21.04775363410797
 30
0.0
 10
52.50204875960502
 20
21.7606309428745
 30
0.0
  0
SPLINE
  5
83
330
1F
100
AcDbEntity
  8
0
  6
Continuous
 62
     7
370
    25
100
AcDbSpline
210
0.0
220
0.0
230
1.0
 70
     8
 71
     3
 72
    27
 73
    23
 74
     0
 42
0.000000001
 43
0.0000000001
 40
0.0
 40
0.0
 40
0.0
 40
0.0
 40
0.012789903710442
 40
0.0662747661013841
 40
0.119759817310465
 40
0.1732450534085016
 40
0.2267304696099519
 40
0.2802160602995451
 40
0.3337018190622359
 40
0.3871877387164504
 40
0.4406738113502622
 40
0.4941600283604527
 40
0.5476463804939524
 40
0.6011328578919261
 40
0.6546194501358214
 40
0.7081061462954814
 40
0.7615929349789262
 40
0.815079804383869
 40
0.8685667423505053
 40
0.922053736415485
 40
0.9755407738669482
 40
1.0
 40
1.0
 40
1.0
 40
1.0
 10
261.0966176293471
 20
-159.4153680304185
 30
0.0
 10
261.5406692019228
 20
-158.8380926291099
 30
0.0
 10
263.8416571355053
 20
-155.8467650113289
 30
0.0
 10
267.7505014730868
 20
-150.2534650802975
 30
0.0
 10
272.8048308570036
 20
-142.638931696791
 30
0.0
 10
277.5733524829724
 20
-134.8386835293127
 30
0.0
 10
282.0763801238414
 20
-126.8818943438686
 30
0.0
 10
286.301578503022
 20
-118.7727226012513
 30
0.0
 10
290.2457766134743
 20
-110.5222614161616
 30
0.0
 10
293.9037715366028
 20
-102.1399629999105
 30
0.0
 10
297.2713357473584
 20
-93.63592167579998
 30
0.0
 10
300.34441782559
 20
-85.02024709541478
 30
0.0
 10
303.1193635529393
 20
-76.30321689811498
 30
0.0
 10
305.5928596014194
 20
-67.49522036373178
 30
0.0
 10
307.7619639539051
 20
-58.60675768671704
 30
0.0
 10
309.6240642627253
 20
-49.64842490060792
 30
0.0
 10
311.1770351517421
 20
-40.63089979695173
 30
0.0
 10
312.4186692065363
 20
-31.56493752335059
 30
0.0
 10
313.3488116533387
 20
-22.46132586839185
 30
0.0
 10
313.9614039368952
 20
-13.33099160958732
 30
0.0
 10
314.2176024059043
 20
-5.839159594792175
 30
0.0
 10
314.2388917747443
 20
-1.394664732817807
 30
0.0
 10
314.2455722936395
 20
-0.0000000000003513
 30
0.0
  0
SPLINE
  5
85
330
1F
100
AcDbEntity
  8
0
  6
Continuous
 62
     7
370
    25
100
AcDbSpline
210
0.0
220
0.0
230
1.0
 70
     8
 71
     3
 72
    27
 73
    23
 74
     0
 42
0.000000001
 43
0.0000000001
 40
0.0
 40
0.0
 40
0.0
 40
0.0
 40
0.0283887453076764
 40
0.0818296214111815
 40
0.135272403011934
 40
0.188715171801385
 40
0.2421579145326272
 40
0.2956006182593518
 40
0.3490432702032705
 40
0.4024858578104772
 40
0.4559283688073207
 40
0.5093707912553423
 40
0.5628131136051421
 40
0.6162553247491389
 40
0.6696974140727355
 40
0.7231393715039065
 40
0.7765811875609355
 40
0.8300228533980144
 40
0.8834643608485173
 40
0.9369057024658108
 40
0.9903468715612088
 40
1.0
 40
1.0
 40
1.0
 40
1.0
 10
-214.647228141545
 20
-0.0000000000002901
 30
0.0
 10
-214.6382989525892
 20
-1.620073662322704
 30
0.0
 10
-214.6125608601217
 20
-6.289882525281587
 30
0.0
 10
-214.3280758920477
 20
-14.00624535908956
 30
0.0
 10
-213.692599201346
 20
-23.13488741852509
 30
0.0
 10
-212.7392406818799
 20
-32.23611154945432
 30
0.0
 10
-211.4745892940083
 20
-41.29889552571593
 30
0.0
 10
-209.8986936508622
 20
-50.31245222904754
 30
0.0
 10
-208.0138234219551
 20
-59.26603160929988
 30
0.0
 10
-205.8221209426093
 20
-68.14896088613226
 30
0.0
 10
-203.3262274855236
 20
-76.95065017813707
 30
0.0
 10
-200.5291104769172
 20
-85.66060616765012
 30
0.0
 10
-197.4341096513926
 20
-94.26844760170844
 30
0.0
 10
-194.0449039062428
 20
-102.7639047174097
 30
0.0
 10
-190.3655738448884
 20
-111.1368803478099
 30
0.0
 10
-186.4003583194768
 20
-119.377279507311
 30
0.0
 10
-182.1545367699765
 20
-127.4757024127327
 30
0.0
 10
-177.6311119146972
 20
-135.4209142443195
 30
0.0
 10
-172.8431627360054
 20
-143.2093433286131
 30
0.0
 10
-167.7677137757943
 20
-150.8096878600627
 30
0.0
 10
-163.9517142006686
 20
-156.2506393614998
 30
0.0
 10
-161.7537910331875
 20
-159.0964394023015
 30
0.0
 10
-161.4175192073098
 20
-159.5318333186866
 30
0.0
  0
SPLINE
  5
86
330
1F
100
AcDbEntity
  8
0
  6
Continuous
 62
     7
370
    25
100
AcDbSpline
210
0.0
220
0.0
230
1.0
 70
     8
 71
     3
 72
    27
 73
    23
 74
     0
 42
0.000000001
 43
0.0000000001
 40
0.0
 40
0.0
 40
0.0
 40
0.0
 40
0.0279373116634062
 40
0.0805283788306314
 40
0.1331213211941715
 40
0.1857142509501159
 40
0.2383071550622295
 40
0.2909000207900748
 40
0.3434928355585515
 40
0.3960855870133972
 40
0.4486782630761209
 40
0.5012708519981146
 40
0.5538633424136376
 40
0.6064557233917263
 40
0.6590479844865877
 40
0.7116401157863627
 40
0.7642321079601036
 40
0.8168239523026677
 40
0.8694156407773066
 40
0.9220071660557774
 40
0.9745985215557666
 40
1.0
 40
1.0
 40
1.0
 40
1.0
 10
314.2455722936397
 20
0.0000000000022366
 30
0.0
 10
314.2366431046837
 20
1.620073662324554
 30
0.0
 10
314.2109050122158
 20
6.289882525283474
 30
0.0
 10
313.9264200441464
 20
14.00624535909578
 30
0.0
 10
313.2909433534253
 20
23.13488741851723
 30
0.0
 10
312.33758483403
 20
32.23611154950001
 30
0.0
 10
311.0729334458942
 20
41.2988955255605
 30
0.0
 10
309.4970378037346
 20
50.31245222964011
 30
0.0
 10
307.6121675711446
 20
59.26603160709921
 30
0.0
 10
305.4204651055441
 20
68.14896089435631
 30
0.0
 10
302.9245715971598
 20
76.95065014745542
 30
0.0
 10
300.1274547800008
 20
85.66060628216684
 30
0.0
 10
297.0324532399867
 20
94.26844717433931
 30
0.0
 10
293.6432501613394
 20
102.7639063123791
 30
0.0
 10
289.9639101484963
 20
111.1368743953342
 30
0.0
 10
285.9987317624083
 20
119.3773017221777
 30
0.0
 10
281.7527716076176
 20
127.4756195060654
 30
0.0
 10
277.2298640321336
 20
135.4212236548965
 30
0.0
 10
272.439984347578
 20
143.2081885978366
 30
0.0
 10
267.3717400996884
 20
150.8139973536881
 30
0.0
 10
263.0043603233685
 20
156.9925117323929
 30
0.0
 10
260.2344581423489
 20
160.5602520234861
 30
0.0
 10
259.3323289724547
 20
161.7222290092645
 30
0.0
  0
SPLINE
  5
88
330
1F
100
AcDbEntity
  8
0
  6
Continuous
 62
     7
370
    25
100
AcDbSpline
210
0.0
220
0.0
230
1.0
 70
     8
 71
     3
 72
    27
 73
    23
 74
     0
 42
0.000000001
 43
0.0000000001
 40
0.0
 40
0.0
 40
0.0
 40
0.0
 40
0.029390688064197
 40
0.0819761566279429
 40
0.1345618108346954
 40
0.1871476468213336
 40
0.2397336598828077
 40
0.2923198444982427
 40
0.3449061943604815
 40
0.3974927024087051
 40
0.4500793608640698
 40
0.5026661612679625
 40
0.5552530945229801
 40
0.6078401509360381
 40
0.6604273202637955
 40
0.7130145917598547
 40
0.7656019542238504
 40
0.8181893960519476
 40
0.8707769052888052
 40
0.9233644696806599
 40
0.9759520767294455
 40
1.0
 40
1.0
 40
1.0
 40
1.0
 10
-159.7236970813821
 20
161.7364544044916
 30
0.0
 10
-160.764813060478
 20
160.389662138197
 30
0.0
 10
-163.6686813327621
 20
156.6332052112306
 30
0.0
 10
-168.1575557071051
 20
150.2575376381572
 30
0.0
 10
-173.2050402041574
 20
142.6378404525079
 30
0.0
 10
-177.9753959215586
 20
134.8389759288284
 30
0.0
 10
-182.4779321166227
 20
126.8818159952689
 30
0.0
 10
-186.7032621789562
 20
118.7727435947963
 30
0.0
 10
-190.647425004847
 20
110.5222557909338
 30
0.0
 10
-194.3054293824881
 20
102.1399645071939
 30
0.0
 10
-197.6729910599034
 20
93.63592127192543
 30
0.0
 10
-200.7460738169444
 20
85.02024720363584
 30
0.0
 10
-203.5210193624064
 20
76.3032168691206
 30
0.0
 10
-205.9945154596238
 20
67.49522037150318
 30
0.0
 10
-208.1636197990502
 20
58.60675768463654
 30
0.0
 10
-210.0257201113698
 20
49.64842490116737
 30
0.0
 10
-211.578690999449
 20
40.63089979680425
 30
0.0
 10
-212.8203250544945
 20
31.5649375233923
 30
0.0
 10
-213.7504675012294
 20
22.46132586838289
 30
0.0
 10
-214.3630597848045
 20
13.33099160959144
 30
0.0
 10
-214.6192582538093
 20
5.839159594791982
 30
0.0
 10
-214.6405476226495
 20
1.394664732816297
 30
0.0
 10
-214.6472281415448
 20
-0.0000000000014034
 30
0.0
  0
SPLINE
  5
89
330
1F
100
AcDbEntity
  8
0
  6
Continuous
 62
     7
370
    25
100
AcDbSpline
210
0.0
220
0.0
230
1.0
 70
     8
 71
     3
 72
     9
 73
     5
 74
     0
 42
0.000000001
 43
0.0000000001
 40
0.0
 40
0.0
 40
0.0
 40
0.0
 40
0.601720945144758
 40
1.0
 40
1.0
 40
1.0
 40
1.0
 10
184.1825522531608
 20
-28.56299437257572
 30
0.0
 10
184.3651904999746
 20
-28.55473431366256
 30
0.0
 10
184.6687169905973
 20
-28.54100692228651
 30
0.0
 10
184.9271302809859
 20
-28.407548323199
 30
0.0
 10
185.030050882044
 20
-28.35439455849213
 30
0.0
  0
SPLINE
  5
8A
330
1F
100
AcDbEntity
  8
0
  6
Continuous
 62
     7
370
    25
100
AcDbSpline
210
0.0
220
0.0
230
1.0
 70
     8
 71
     3
 72
    14
 73
    10
 74
     0
 42
0.000000001
 43
0.0000000001
 40
0.0
 40
0.0
 40
0.0
 40
0.0
 40
0.0416959623179564
 40
0.2387312930891112
 40
0.4391146548666592
 40
0.6456449799376609
 40
0.8026478159451773
 40
0.9373495068719297
 40
1.0
 40
1.0
 40
1.0
 40
1.0
 10
187.5606031680604
 20
23.78676444038622
 30
0.0
 10
187.5288832807816
 20
23.9087772042942
 30
0.0
 10
187.3472702591437
 20
24.60736438832433
 30
0.0
 10
186.9755872685136
 20
25.63264378914116
 30
0.0
 10
186.4311597764039
 20
26.84774606344357
 30
0.0
 10
185.8526982206315
 20
27.71520006665347
 30
0.0
 10
185.2144668089064
 20
28.28062850907924
 30
0.0
 10
184.6224473894329
 20
28.58297986545133
 30
0.0
 10
184.2536031902952
 20
28.56833517544581
 30
0.0
 10
184.1365116512576
 20
28.56368614125879
 30
0.0
  0
SPLINE
  5
8B
330
1F
100
AcDbEntity
  8
0
  6
Continuous
 62
     7
370
    25
100
AcDbSpline
210
0.0
220
0.0
230
1.0
 70
     8
 71
     3
 72
    12
 73
     8
 74
     0
 42
0.000000001
 43
0.0000000001
 40
0.0
 40
0.0
 40
0.0
 40
0.0
 40
0.1324930192227216
 40
0.3394786715381508
 40
0.5852125221098634
 40
0.8503909739159071
 40
1.0
 40
1.0
 40
1.0
 40
1.0
 10
185.030050882044
 20
-28.35439455849213
 30
0.0
 10
185.1835894743528
 20
-28.25482696561043
 30
0.0
 10
185.5769919166293
 20
-27.99971107831287
 30
0.0
 10
186.0956111406
 20
-27.37746048667358
 30
0.0
 10
186.6463324628501
 20
-26.41164935926674
 30
0.0
 10
187.1049609608764
 20
-25.32322335717026
 30
0.0
 10
187.3639310446445
 20
-24.44087443550812
 30
0.0
 10
187.4573385462754
 20
-24.12262142674397
 30
0.0
  0
SPLINE
  5
8E
330
1F
100
AcDbEntity
  8
0
  6
Continuous
 62
     7
370
    25
100
AcDbSpline
210
0.0
220
0.0
230
1.0
 70
     8
 71
     3
 72
     9
 73
     5
 74
     0
 42
0.000000001
 43
0.0000000001
 40
0.0
 40
0.0
 40
0.0
 40
0.0
 40
0.7911615181964775
 40
1.0
 40
1.0
 40
1.0
 40
1.0
 10
-11.63967908646736
 20
25.17994888893201
 30
0.0
 10
-11.7113548123789
 20
25.00907345423336
 30
0.0
 10
-11.8019503788505
 20
24.79309298656832
 30
0.0
 10
-11.88162284497193
 20
24.50519322679439
 30
0.0
 10
-11.89826152183828
 20
24.44506867805161
 30
0.0
  0
SPLINE
  5
94
330
1F
100
AcDbEntity
  8
0
  6
Continuous
 62
     7
370
    25
100
AcDbSpline
210
0.0
220
0.0
230
1.0
 70
    24
 71
     3
 72
    30
 73
    26
 74
     0
 42
0.000000001
 43
0.0000000001
 40
0.0
 40
0.0
 40
0.0
 40
0.0
 40
0.1249999999999961
 40
0.1249999999999961
 40
0.1874999999999941
 40
0.1874999999999941
 40
0.218749999999995
 40
0.218749999999995
 40
0.249999999999996
 40
0.249999999999996
 40
0.3750000000000036
 40
0.3750000000000036
 40
0.5000000000000116
 40
0.5000000000000116
 40
0.5312500000000107
 40
0.5312500000000107
 40
0.5625000000000099
 40
0.5625000000000099
 40
0.6250000000000086
 40
0.6250000000000086
 40
0.7500000000000057
 40
0.7500000000000057
 40
0.8750000000000028
 40
0.8750000000000028
 40
1.0
 40
1.0
 40
1.0
 40
1.0
 10
42.24126386581017
 20
-0.0000000000001011
 30
0.0
 10
38.38060827194182
 20
-0.0000000000001019
 30
0.0
 10
34.66432411903511
 20
-0.0000000000001022
 30
0.0
 10
29.30338054280343
 20
-0.0000000000001034
 30
0.0
 10
27.55208570067593
 20
-0.0000000000001038
 30
0.0
 10
24.97924505456021
 20
-0.0000000000001044
 30
0.0
 10
24.1301980528648
 20
-0.0000000000001046
 30
0.0
 10
22.45960960758972
 20
-0.000000000000105
 30
0.0
 10
21.63689306290184
 20
-0.0000000000001052
 30
0.0
 10
17.5854034934181
 20
-0.0000000000001061
 30
0.0
 10
14.54218118126851
 20
-0.0000000000001069
 30
0.0
 10
8.843381871882826
 20
-0.0000000000001084
 30
0.0
 10
6.187798252055717
 20
-0.0000000000001091
 30
0.0
 10
3.116853712274832
 20
-0.00000000000011
 30
0.0
 10
2.515137654678998
 20
-0.0000000000001102
 30
0.0
 10
1.336999515771991
 20
-0.0000000000001106
 30
0.0
 10
0.7614817558269582
 20
-0.0000000000001107
 30
0.0
 10
-0.9153444339937076
 20
-0.0000000000001113
 30
0.0
 10
-1.970721607891265
 20
-0.0000000000001116
 30
0.0
 10
-4.953278452699126
 20
-0.0000000000001126
 30
0.0
 10
-6.697576578271099
 20
-0.0000000000001132
 30
0.0
 10
-9.701546875539742
 20
-0.0000000000001144
 30
0.0
 10
-10.96128107924869
 20
-0.000000000000115
 30
0.0
 10
-12.97661496067554
 20
-0.0000000000001161
 30
0.0
 10
-13.71772288313
 20
-0.0000000000001165
 30
0.0
 10
-14.19173902019662
 20
-0.000000000000117
 30
0.0
  0
LWPOLYLINE
  5
95
330
1F
100
AcDbEntity
  8
0
  6
Continuous
 62
     7
370
    25
100
AcDbPolyline
 90
       18
 70
   128
 43
0.0
 10
186.0216882779021
 20
-27.54583542939566
 10
185.6747807568637
 20
-28.07792387083651
 10
185.1218804467214
 20
-28.61891164492536
 10
184.5619385422445
 20
-28.79999999999997
 10
184.0019966377676
 20
-28.61891164492535
 10
183.4490963276252
 20
-28.07792387083647
 10
182.9101906540179
 20
-27.18383991288093
 10
182.3920566684714
 20
-25.9479033955896
 10
181.9012102064825
 20
-24.38565693777451
 10
181.4438239471062
 20
-22.51674669507917
 10
181.0256497879361
 20
-20.36467529817247
 10
180.6519465116539
 20
-17.95650629353142
 10
180.3274136537865
 20
-15.32252380364158
 10
180.0561324033203
 20
-12.49585168658556
 10
179.8415142793805
 20
-9.512036984308693
 10
179.6862582294003
 20
-6.408602897941734
 10
179.5923166882896
 20
-3.224576911775146
 10
179.5608710254378
 20
-0.000000000000074
  0
SPLINE
  5
96
330
1F
100
AcDbEntity
  8
0
  6
Continuous
 62
     7
370
    25
100
AcDbSpline
210
0.0
220
0.0
230
1.0
 70
     9
 71
     3
 72
   106
 73
   102
 74
     0
 42
0.000000001
 43
0.0000000001
 40
0.0
 40
0.0
 40
0.0
 40
0.0
 40
0.031249999999999
 40
0.031249999999999
 40
0.0468749999999985
 40
0.0468749999999985
 40
0.062499999999998
 40
0.062499999999998
 40
0.0781249999999975
 40
0.0781249999999975
 40
0.0859374999999973
 40
0.0859374999999973
 40
0.093749999999997
 40
0.093749999999997
 40
0.1093749999999965
 40
0.1093749999999965
 40
0.1171874999999948
 40
0.1171874999999948
 40
0.124999999999993
 40
0.124999999999993
 40
0.1406249999999895
 40
0.1406249999999895
 40
0.1562499999999859
 40
0.1562499999999859
 40
0.1718749999999824
 40
0.1718749999999824
 40
0.1874999999999789
 40
0.1874999999999789
 40
0.2187499999999772
 40
0.2187499999999772
 40
0.2499999999999755
 40
0.2499999999999755
 40
0.2812499999999737
 40
0.2812499999999737
 40
0.2968749999999729
 40
0.2968749999999729
 40
0.312499999999972
 40
0.312499999999972
 40
0.3437499999999753
 40
0.3437499999999753
 40
0.3749999999999787
 40
0.3749999999999787
 40
0.4062499999999822
 40
0.4062499999999822
 40
0.4374999999999855
 40
0.4374999999999855
 40
0.4531249999999872
 40
0.4531249999999872
 40
0.4687499999999887
 40
0.4687499999999887
 40
0.4999999999999904
 40
0.4999999999999904
 40
0.5156249999999915
 40
0.5156249999999915
 40
0.5312499999999925
 40
0.5312499999999925
 40
0.5468749999999935
 40
0.5468749999999935
 40
0.5624999999999944
 40
0.5624999999999944
 40
0.5781249999999952
 40
0.5781249999999952
 40
0.5937499999999961
 40
0.5937499999999961
 40
0.6093749999999973
 40
0.6093749999999973
 40
0.6249999999999982
 40
0.6249999999999982
 40
0.6562500000000044
 40
0.6562500000000044
 40
0.6718750000000072
 40
0.6718750000000072
 40
0.6875000000000103
 40
0.6875000000000103
 40
0.7031250000000133
 40
0.7031250000000133
 40
0.718750000000016
 40
0.718750000000016
 40
0.7343750000000191
 40
0.7343750000000191
 40
0.7500000000000219
 40
0.7500000000000219
 40
0.7812500000000277
 40
0.7812500000000277
 40
0.7968750000000277
 40
0.7968750000000277
 40
0.8125000000000277
 40
0.8125000000000277
 40
0.8437500000000227
 40
0.8437500000000227
 40
0.8750000000000175
 40
0.8750000000000175
 40
0.9062500000000127
 40
0.9062500000000127
 40
0.9375000000000078
 40
0.9375000000000078
 40
0.9687500000000028
 40
0.9687500000000028
 40
0.9843750000000014
 40
0.9843750000000014
 40
1.0
 40
1.0
 40
1.0
 40
1.0
 10
126.073010065874
 20
-64.03124237431318
 30
0.0
 10
126.8461268303265
 20
-63.41822651860843
 30
0.0
 10
127.6455531323279
 20
-62.84234186013939
 30
0.0
 10
128.8955615156475
 20
-62.05063645684083
 30
0.0
 10
129.3207934935955
 20
-61.79887535195207
 30
0.0
 10
130.1920125127825
 20
-61.3248414220445
 30
0.0
 10
130.6322344176633
 20
-61.10587267660918
 30
0.0
 10
131.5153484083957
 20
-60.71304545785817
 30
0.0
 10
131.9594260903519
 20
-60.53849286659376
 30
0.0
 10
132.6302620845916
 20
-60.31522125748115
 30
0.0
 10
132.8557047456472
 20
-60.24699285382038
 30
0.0
 10
133.3018438399053
 20
-60.12645386719983
 30
0.0
 10
133.5226580898867
 20
-60.07402601835619
 30
0.0
 10
134.1782392728436
 20
-59.9408716175326
 30
0.0
 10
134.6061769315584
 20
-59.88418682300558
 30
0.0
 10
135.2334987896098
 20
-59.851117153895
 30
0.0
 10
135.4406929123338
 20
-59.84888462338465
 30
0.0
 10
135.8416025135872
 20
-59.86206136630466
 30
0.0
 10
136.0363683458098
 20
-59.87736303684243
 30
0.0
 10
136.604162761938
 20
-59.94849479732728
 30
0.0
 10
136.9607441280913
 20
-60.02948180695874
 30
0.0
 10
137.6315339137943
 20
-60.2555855172325
 30
0.0
 10
137.940351586253
 20
-60.39919613711139
 30
0.0
 10
138.5021074519261
 20
-60.73490346168147
 30
0.0
 10
138.7568190380121
 20
-60.92768465765415
 30
0.0
 10
139.2184465184281
 20
-61.35691601045802
 30
0.0
 10
139.4209059180199
 20
-61.58908015455752
 30
0.0
 10
139.9566966387586
 20
-62.32858225485153
 30
0.0
 10
140.2194402034818
 20
-62.87871176140787
 30
0.0
 10
140.5899457504654
 20
-64.06423555535147
 30
0.0
 10
140.6926694822184
 20
-64.68349982643207
 30
0.0
 10
140.7651087771984
 20
-65.96078915399738
 30
0.0
 10
140.7343472028278
 20
-66.61901130206095
 30
0.0
 10
140.595966099503
 20
-67.63129199128487
 30
0.0
 10
140.5342053154895
 20
-67.9730398263998
 30
0.0
 10
140.3822109584283
 20
-68.65597988923454
 30
0.0
 10
140.2918584790812
 20
-68.99825385622029
 30
0.0
 10
139.9792352940539
 20
-70.02720798225166
 30
0.0
 10
139.7156768374331
 20
-70.71597893138137
 30
0.0
 10
139.0787848465178
 20
-72.09879001888315
 30
0.0
 10
138.7033149697212
 20
-72.79521728230445
 30
0.0
 10
137.8580628459605
 20
-74.1594464186364
 30
0.0
 10
137.3868051713386
 20
-74.83132107956524
 30
0.0
 10
136.3429845533544
 20
-76.15494768750751
 30
0.0
 10
135.7705427730158
 20
-76.80671098043475
 30
0.0
 10
134.8259836864617
 20
-77.76873839529931
 30
0.0
 10
134.4960022765027
 20
-78.08731289954526
 30
0.0
 10
133.8166292052292
 20
-78.70825765407028
 30
0.0
 10
133.4660197928255
 20
-79.01194659259809
 30
0.0
 10
132.3799410073214
 20
-79.90212958687671
 30
0.0
 10
131.6107157602556
 20
-80.46800729778418
 30
0.0
 10
130.3763230280503
 20
-81.26956619082717
 30
0.0
 10
129.9544743168562
 20
-81.52661135102382
 30
0.0
 10
129.0988858793691
 20
-82.01352374120075
 30
0.0
 10
128.663717535464
 20
-82.24434144041426
 30
0.0
 10
127.7776098389619
 20
-82.67902222427698
 30
0.0
 10
127.3266814212333
 20
-82.88290379754029
 30
0.0
 10
126.4072753749118
 20
-83.26075022500294
 30
0.0
 10
125.9463686258202
 20
-83.43149645932173
 30
0.0
 10
125.0285694193685
 20
-83.73307546663658
 30
0.0
 10
124.5706827975348
 20
-83.86433531009975
 30
0.0
 10
123.6572837284981
 20
-84.08496199266306
 30
0.0
 10
123.1992559877009
 20
-84.17437600276832
 30
0.0
 10
122.3169592532691
 20
-84.30288607932302
 30
0.0
 10
121.8891578910591
 20
-84.34307786922529
 30
0.0
 10
121.0605639786191
 20
-84.37499594206343
 30
0.0
 10
120.6577977536688
 20
-84.36654414475743
 30
0.0
 10
119.5052292971545
 20
-84.26565163094279
 30
0.0
 10
118.8346106899123
 20
-84.10213514409065
 30
0.0
 10
117.9626424343253
 20
-83.72292570806939
 30
0.0
 10
117.6991565330268
 20
-83.57573214707029
 30
0.0
 10
117.226380229007
 20
-83.24614479313384
 30
0.0
 10
117.0161499869322
 20
-83.06331296120436
 30
0.0
 10
116.6444115790678
 20
-82.66347005205961
 30
0.0
 10
116.4833419678556
 20
-82.44625152721908
 30
0.0
 10
116.2133143893699
 20
-81.99029213304298
 30
0.0
 10
116.103085498466
 20
-81.75030324953281
 30
0.0
 10
115.9272664325226
 20
-81.24814329571405
 30
0.0
 10
115.8616993938319
 20
-80.9859622269977
 30
0.0
 10
115.772170466151
 20
-80.44037887759561
 30
0.0
 10
115.7483385427902
 20
-80.15576435921337
 30
0.0
 10
115.7360908550899
 20
-79.28674868598466
 30
0.0
 10
115.8050241996284
 20
-78.68365688468258
 30
0.0
 10
116.0057001254434
 20
-77.74668043980897
 30
0.0
 10
116.0889647382435
 20
-77.42892484027627
 30
0.0
 10
116.2866997966419
 20
-76.78270795434646
 30
0.0
 10
116.4016755928794
 20
-76.45301426126969
 30
0.0
 10
116.7882017572572
 20
-75.45783309557593
 30
0.0
 10
117.0998005953675
 20
-74.78807355461476
 30
0.0
 10
117.8188136119457
 20
-73.43576785082046
 30
0.0
 10
118.2263119170345
 20
-72.75321988226494
 30
0.0
 10
119.1345034493443
 20
-71.37484253705782
 30
0.0
 10
119.6384580248439
 20
-70.67533025034889
 30
0.0
 10
120.7162521623168
 20
-69.29723715565429
 30
0.0
 10
121.2918756474135
 20
-68.61524433650302
 30
0.0
 10
122.5194618517785
 20
-67.26676971240014
 30
0.0
 10
123.1712839332393
 20
-66.60023910738205
 30
0.0
 10
124.2153517487178
 20
-65.61533172298367
 30
0.0
 10
124.5748467135927
 20
-65.28934516601188
 30
0.0
 10
125.3099071713848
 20
-64.65103763912225
 30
0.0
 10
125.6864516836478
 20
-64.33775030216555
 30
0.0
 10
126.073010065874
 20
-64.03124237431318
 30
0.0
  0
SPLINE
  5
97
330
1F
100
AcDbEntity
  8
0
  6
Continuous
 62
     7
370
    25
100
AcDbSpline
210
0.0
220
0.0
230
1.0
 70
     8
 71
     3
 72
    16
 73
    12
 74
     0
 42
0.000000001
 43
0.0000000001
 40
0.0
 40
0.0
 40
0.0
 40
0.0
 40
0.1108761627391005
 40
0.2218693408859105
 40
0.3442674949923723
 40
0.4666747139177498
 40
0.610028023249834
 40
0.753176129618109
 40
0.8445429669409806
 40
0.9358069793447908
 40
1.0
 40
1.0
 40
1.0
 40
1.0
 10
27.59223476463307
 20
-64.03124237432797
 30
0.0
 10
28.4070569272302
 20
-64.70198898858149
 30
0.0
 10
30.0375611915242
 20
-66.04419010313545
 30
0.0
 10
32.43102303331055
 20
-68.29646611247984
 30
0.0
 10
34.75878153377316
 20
-70.6661519691568
 30
0.0
 10
37.07827785001256
 20
-73.26526042478694
 30
0.0
 10
39.21305666308538
 20
-75.95069183214474
 30
0.0
 10
40.78424257825019
 20
-78.31621482933545
 30
0.0
 10
41.72938686548316
 20
-80.18188448808425
 30
0.0
 10
42.194621170115
 20
-81.48233621680981
 30
0.0
 10
42.23256711923194
 20
-82.16005919082222
 30
0.0
 10
42.24823617612509
 20
-82.43991198366931
 30
0.0
  0
SPLINE
  5
98
330
1F
100
AcDbEntity
  8
0
  6
Continuous
 62
     7
370
    25
100
AcDbSpline
210
0.0
220
0.0
230
1.0
 70
     8
 71
     3
 72
    18
 73
    14
 74
     0
 42
0.000000001
 43
0.0000000001
 40
0.0
 40
0.0
 40
0.0
 40
0.0
 40
0.0651211240078046
 40
0.1665944938284847
 40
0.2679335859938002
 40
0.3410748596579296
 40
0.4141119182468004
 40
0.5287822556927184
 40
0.6439700514366128
 40
0.7491381163211717
 40
0.8248016194168068
 40
0.9005852746726501
 40
1.0
 40
1.0
 40
1.0
 40
1.0
 10
18.50941025511912
 20
-66.85817385795288
 30
0.0
 10
18.31502993071937
 20
-66.47201369668485
 30
0.0
 10
17.81776130633705
 20
-65.48412908038958
 30
0.0
 10
17.41004904624677
 20
-64.00397502477531
 30
0.0
 10
17.21392970448514
 20
-62.59010575397329
 30
0.0
 10
17.3281124532886
 20
-61.48609792612732
 30
0.0
 10
17.72135104934593
 20
-60.52000219558376
 30
0.0
 10
18.66431069934585
 20
-59.80560698231879
 30
0.0
 10
20.38893434270658
 20
-59.83168417703446
 30
0.0
 10
22.27695961202602
 20
-60.53435708088239
 30
0.0
 10
24.00786879975381
 20
-61.48195238418431
 30
0.0
 10
25.7291050671765
 20
-62.59889050531299
 30
0.0
 10
26.91774937724515
 20
-63.51270606063643
 30
0.0
 10
27.59223476463307
 20
-64.03124237432797
 30
0.0
  0
SPLINE
  5
99
330
1F
100
AcDbEntity
  8
0
  6
Continuous
 62
     7
370
    25
100
AcDbSpline
210
0.0
220
0.0
230
1.0
 70
    24
 71
     3
 72
    30
 73
    26
 74
     0
 42
0.000000001
 43
0.0000000001
 40
0.0
 40
0.0
 40
0.0
 40
0.0
 40
0.1250000000000008
 40
0.1250000000000008
 40
0.2500000000000017
 40
0.2500000000000017
 40
0.3125000000000021
 40
0.3125000000000021
 40
0.3437500000000043
 40
0.3437500000000043
 40
0.3750000000000066
 40
0.3750000000000066
 40
0.5000000000000071
 40
0.5000000000000071
 40
0.6250000000000072
 40
0.6250000000000072
 40
0.6562500000000055
 40
0.6562500000000055
 40
0.6875000000000039
 40
0.6875000000000039
 40
0.7500000000000035
 40
0.7500000000000035
 40
0.8750000000000015
 40
0.8750000000000015
 40
1.0
 40
1.0
 40
1.0
 40
1.0
 10
179.5608710254392
 20
-0.0000000000000649
 30
0.0
 10
177.6473245595599
 20
-0.0000000000000649
 30
0.0
 10
175.5109403816408
 20
-0.0000000000000656
 30
0.0
 10
170.8100009540034
 20
-0.0000000000000657
 30
0.0
 10
168.2453898149776
 20
-0.000000000000067
 30
0.0
 10
164.0749741782501
 20
-0.0000000000000672
 30
0.0
 10
162.6307653972984
 20
-0.000000000000068
 30
0.0
 10
160.3816034586697
 20
-0.0000000000000682
 30
0.0
 10
159.6168421482689
 20
-0.0000000000000686
 30
0.0
 10
158.065301142075
 20
-0.0000000000000687
 30
0.0
 10
157.2797309881685
 20
-0.0000000000000691
 30
0.0
 10
153.3035583463667
 20
-0.0000000000000694
 30
0.0
 10
149.9685640869894
 20
-0.0000000000000714
 30
0.0
 10
142.9982355871753
 20
-0.0000000000000721
 30
0.0
 10
139.3628963797356
 20
-0.0000000000000743
 30
0.0
 10
134.6269538718414
 20
-0.0000000000000748
 30
0.0
 10
133.6701414957314
 20
-0.0000000000000754
 30
0.0
 10
131.7370209957466
 20
-0.0000000000000757
 30
0.0
 10
130.7591076665599
 20
-0.0000000000000763
 30
0.0
 10
127.8139260607633
 20
-0.0000000000000766
 30
0.0
 10
125.8319548833188
 20
-0.0000000000000779
 30
0.0
 10
119.8317208466231
 20
-0.0000000000000787
 30
0.0
 10
115.759343634979
 20
-0.0000000000000814
 30
0.0
 10
107.471468393171
 20
-0.0000000000000825
 30
0.0
 10
103.2559866816685
 20
-0.000000000000087
 30
0.0
 10
98.96619043931329
 20
-0.0000000000000876
 30
0.0
  0
LWPOLYLINE
  5
9A
330
1F
100
AcDbEntity
  8
0
  6
Continuous
 62
     7
370
    25
100
AcDbPolyline
 90
       18
 70
   128
 43
0.0
 10
179.5608710254393
 20
-0.000000000000083
 10
179.5923166882947
 20
3.224576911775197
 10
179.6862582294053
 20
6.4086028979418
 10
179.8415142793855
 20
9.512036984308773
 10
180.0561324033252
 20
12.49585168658565
 10
180.3274136537914
 20
15.32252380364167
 10
180.6519465116585
 20
17.95650629353152
 10
181.0256497879405
 20
20.36467529817258
 10
181.4438239471104
 20
22.51674669507927
 10
181.9012102064864
 20
24.3856569377746
 10
182.3920566684751
 20
25.94790339558969
 10
182.9101906540213
 20
27.18383991288102
 10
183.4490963276284
 20
28.07792387083654
 10
184.0019966377704
 20
28.6189116449254
 10
184.561938542247
 20
28.80000000000001
 10
185.1218804467237
 20
28.61891164492539
 10
185.6747807568657
 20
28.07792387083651
 10
185.9868965273119
 20
27.60618528135923
  0
SPLINE
  5
9B
330
1F
100
AcDbEntity
  8
0
  6
Continuous
 62
     7
370
    25
100
AcDbSpline
210
0.0
220
0.0
230
1.0
 70
    24
 71
     3
 72
    30
 73
    26
 74
     0
 42
0.000000001
 43
0.0000000001
 40
0.0
 40
0.0
 40
0.0
 40
0.0
 40
0.1250000000000094
 40
0.1250000000000094
 40
0.1875000000000135
 40
0.1875000000000135
 40
0.2187500000000156
 40
0.2187500000000156
 40
0.2500000000000177
 40
0.2500000000000177
 40
0.3750000000000186
 40
0.3750000000000186
 40
0.5000000000000197
 40
0.5000000000000197
 40
0.531250000000019
 40
0.531250000000019
 40
0.5625000000000183
 40
0.5625000000000183
 40
0.6250000000000177
 40
0.6250000000000177
 40
0.7500000000000118
 40
0.7500000000000118
 40
0.8750000000000056
 40
0.8750000000000056
 40
1.0
 40
1.0
 40
1.0
 40
1.0
 10
98.9661904393133
 20
-0.0000000000000911
 30
0.0
 10
103.247142073947
 20
-0.0000000000000905
 30
0.0
 10
107.4711840458556
 20
-0.0000000000000892
 30
0.0
 10
113.7230944476016
 20
-0.0000000000000883
 30
0.0
 10
115.7929974078016
 20
-0.0000000000000881
 30
0.0
 10
118.8765255749819
 20
-0.0000000000000876
 30
0.0
 10
119.9013891199565
 20
-0.0000000000000875
 30
0.0
 10
121.9325602242054
 20
-0.0000000000000872
 30
0.0
 10
122.9402657117276
 20
-0.0000000000000871
 30
0.0
 10
127.9398910509948
 20
-0.0000000000000865
 30
0.0
 10
131.8155611777499
 20
-0.000000000000086
 30
0.0
 10
139.3240370379653
 20
-0.0000000000000851
 30
0.0
 10
142.9568469205576
 20
-0.0000000000000848
 30
0.0
 10
147.3421491542036
 20
-0.0000000000000843
 30
0.0
 10
148.2113952120602
 20
-0.0000000000000842
 30
0.0
 10
149.9340403512508
 20
-0.0000000000000841
 30
0.0
 10
150.7861559159473
 20
-0.000000000000084
 30
0.0
 10
153.3011827050896
 20
-0.0000000000000838
 30
0.0
 10
154.9282706705405
 20
-0.0000000000000836
 30
0.0
 10
159.6638760087824
 20
-0.0000000000000833
 30
0.0
 10
162.6272847933352
 20
-0.0000000000000831
 30
0.0
 10
168.1695726502694
 20
-0.0000000000000827
 30
0.0
 10
170.7485009423669
 20
-0.0000000000000826
 30
0.0
 10
175.5063486070544
 20
-0.0000000000000825
 30
0.0
 10
177.6512698676566
 20
-0.000000000000083
 30
0.0
 10
179.5608710254394
 20
-0.000000000000083
 30
0.0
  0
SPLINE
  5
9D
330
1F
100
AcDbEntity
  8
0
  6
Continuous
 62
     7
370
    25
100
AcDbSpline
210
0.0
220
0.0
230
1.0
 70
    24
 71
     3
 72
    30
 73
    26
 74
     0
 42
0.000000001
 43
0.0000000001
 40
0.0
 40
0.0
 40
0.0
 40
0.0
 40
0.1250000000000064
 40
0.1250000000000064
 40
0.2500000000000128
 40
0.2500000000000128
 40
0.312500000000016
 40
0.312500000000016
 40
0.3437500000000175
 40
0.3437500000000175
 40
0.3750000000000191
 40
0.3750000000000191
 40
0.5000000000000199
 40
0.5000000000000199
 40
0.6250000000000206
 40
0.6250000000000206
 40
0.6562500000000197
 40
0.6562500000000197
 40
0.6875000000000186
 40
0.6875000000000186
 40
0.7500000000000166
 40
0.7500000000000166
 40
0.8750000000000081
 40
0.8750000000000081
 40
1.0
 40
1.0
 40
1.0
 40
1.0
 10
-14.19173902019659
 20
-0.000000000000135
 30
0.0
 10
-13.71674354789244
 20
-0.0000000000001346
 30
0.0
 10
-12.97700952127005
 20
-0.0000000000001337
 30
0.0
 10
-10.98886010743956
 20
-0.0000000000001327
 30
0.0
 10
-9.740378321891661
 20
-0.0000000000001311
 30
0.0
 10
-7.483328243199513
 20
-0.0000000000001302
 30
0.0
 10
-6.666740993322366
 20
-0.0000000000001293
 30
0.0
 10
-5.343433049519298
 20
-0.0000000000001288
 30
0.0
 10
-4.88516413731007
 20
-0.0000000000001283
 30
0.0
 10
-3.938989512540714
 20
-0.000000000000128
 30
0.0
 10
-3.451850724139649
 20
-0.0000000000001275
 30
0.0
 10
-0.9468692490936724
 20
-0.0000000000001267
 30
0.0
 10
1.278013214106934
 20
-0.0000000000001245
 30
0.0
 10
6.158428183312794
 20
-0.0000000000001231
 30
0.0
 10
8.813967811380239
 20
-0.0000000000001207
 30
0.0
 10
12.40836443588435
 20
-0.0000000000001197
 30
0.0
 10
13.14104319555936
 20
-0.0000000000001191
 30
0.0
 10
14.63435518364143
 20
-0.0000000000001187
 30
0.0
 10
15.39626193576444
 20
-0.000000000000118
 30
0.0
 10
17.71015656093265
 20
-0.0000000000001175
 30
0.0
 10
19.29272890846297
 20
-0.0000000000001161
 30
0.0
 10
24.15771868819483
 20
-0.0000000000001149
 30
0.0
 10
27.55696379529171
 20
-0.0000000000001121
 30
0.0
 10
34.6644380722584
 20
-0.0000000000001105
 30
0.0
 10
38.37263201171052
 20
-0.0000000000001054
 30
0.0
 10
42.24126386581018
 20
-0.0000000000001046
 30
0.0
  0
SPLINE
  5
9F
330
1F
100
AcDbEntity
  8
0
  6
Continuous
 62
     7
370
    25
100
AcDbSpline
210
0.0
220
0.0
230
1.0
 70
     8
 71
     3
 72
    13
 73
     9
 74
     0
 42
0.000000001
 43
0.0000000001
 40
0.0
 40
0.0
 40
0.0
 40
0.0
 40
0.1497047105954393
 40
0.2991861022049895
 40
0.5167607059048417
 40
0.7008018154989975
 40
0.8850996994289602
 40
1.0
 40
1.0
 40
1.0
 40
1.0
 10
27.59223476461441
 20
64.03124237431296
 30
0.0
 10
26.99666845650322
 20
63.57201228993794
 30
0.0
 10
25.80642426432191
 20
62.65423716841397
 30
0.0
 10
23.72621587451592
 20
61.28749160600636
 30
0.0
 10
21.53561479580611
 20
60.17020910804093
 30
0.0
 10
19.53232531150975
 20
59.73652561700172
 30
0.0
 10
18.26118347665172
 20
59.98843188496874
 30
0.0
 10
17.90238953645475
 20
60.56277631580486
 30
0.0
 10
17.76460283283403
 20
60.78334031369285
 30
0.0
  0
SPLINE
  5
A0
330
1F
100
AcDbEntity
  8
0
  6
Continuous
 62
     7
370
    25
100
AcDbSpline
210
0.0
220
0.0
230
1.0
 70
     8
 71
     3
 72
    10
 73
     6
 74
     0
 42
0.000000001
 43
0.0000000001
 40
0.0
 40
0.0
 40
0.0
 40
0.0
 40
0.0407673210685673
 40
0.6009260177086328
 40
1.0
 40
1.0
 40
1.0
 40
1.0
 10
17.28552352438182
 20
62.12550928345745
 30
0.0
 10
17.28013392585515
 20
62.15128867725146
 30
0.0
 10
17.20068916728891
 20
62.53128687300047
 30
0.0
 10
17.27719436567298
 20
63.30790755400929
 30
0.0
 10
17.50858881118772
 20
64.10949077218365
 30
0.0
 10
17.60485690638495
 20
64.44297712439082
 30
0.0
  0
SPLINE
  5
A1
330
1F
100
AcDbEntity
  8
0
  6
Continuous
 62
     7
370
    25
100
AcDbSpline
210
0.0
220
0.0
230
1.0
 70
     8
 71
     3
 72
    19
 73
    15
 74
     0
 42
0.000000001
 43
0.0000000001
 40
0.0
 40
0.0
 40
0.0
 40
0.0
 40
0.0328242433931215
 40
0.1210456244176468
 40
0.2115943945819516
 40
0.2756259250215675
 40
0.3397348971225491
 40
0.423884456444641
 40
0.5081347212478315
 40
0.614106412136708
 40
0.7201426423356507
 40
0.8271437581231978
 40
0.9340535034327428
 40
1.0
 40
1.0
 40
1.0
 40
1.0
 10
39.76077838518298
 20
84.33751877449532
 30
0.0
 10
40.00195205461593
 20
84.34700572811172
 30
0.0
 10
40.89132571237178
 20
84.38199066928961
 30
0.0
 10
41.89344943554649
 20
83.90059380644341
 30
0.0
 10
42.33578426879168
 20
82.85040697695533
 30
0.0
 10
42.20355917844385
 20
81.58032809934406
 30
0.0
 10
41.73263806066212
 20
80.16497286079479
 30
0.0
 10
40.842466393376
 20
78.43418684107759
 30
0.0
 10
39.40798580497432
 20
76.23984014788181
 30
0.0
 10
37.48338738868033
 20
73.74561414181734
 30
0.0
 10
35.07265126626491
 20
70.99516437365444
 30
0.0
 10
32.38868981270344
 20
68.23972949232753
 30
0.0
 10
29.85787888197632
 20
65.8833457073989
 30
0.0
 10
28.21790301692062
 20
64.54270939890979
 30
0.0
 10
27.59223476461441
 20
64.03124237431296
 30
0.0
  0
SPLINE
  5
A2
330
1F
100
AcDbEntity
  8
0
  6
Continuous
 62
     7
370
    25
100
AcDbSpline
210
0.0
220
0.0
230
1.0
 70
     9
 71
     3
 72
   116
 73
   112
 74
     0
 42
0.000000001
 43
0.0000000001
 40
0.0
 40
0.0
 40
0.0
 40
0.0
 40
0.0312499999999867
 40
0.0312499999999867
 40
0.0624999999999735
 40
0.0624999999999735
 40
0.0781249999999667
 40
0.0781249999999667
 40
0.0937499999999599
 40
0.0937499999999599
 40
0.124999999999943
 40
0.124999999999943
 40
0.1562499999999261
 40
0.1562499999999261
 40
0.1874999999999093
 40
0.1874999999999093
 40
0.2187499999998924
 40
0.2187499999998924
 40
0.2343749999998866
 40
0.2343749999998866
 40
0.2499999999998808
 40
0.2499999999998808
 40
0.2812499999998695
 40
0.2812499999998695
 40
0.2968749999998668
 40
0.2968749999998668
 40
0.3124999999998641
 40
0.3124999999998641
 40
0.3281249999998614
 40
0.3281249999998614
 40
0.3437499999998587
 40
0.3437499999998587
 40
0.3593749999998561
 40
0.3593749999998561
 40
0.3671874999998547
 40
0.3671874999998547
 40
0.3749999999998533
 40
0.3749999999998533
 40
0.390624999999855
 40
0.390624999999855
 40
0.3984374999998561
 40
0.3984374999998561
 40
0.4062499999998572
 40
0.4062499999998572
 40
0.4218749999998623
 40
0.4218749999998623
 40
0.4374999999998674
 40
0.4374999999998674
 40
0.4687499999998792
 40
0.4687499999998792
 40
0.4843749999998855
 40
0.4843749999998855
 40
0.4999999999998918
 40
0.4999999999998918
 40
0.5156249999998979
 40
0.5156249999998979
 40
0.5312499999999041
 40
0.5312499999999041
 40
0.5624999999999173
 40
0.5624999999999173
 40
0.5781249999999256
 40
0.5781249999999256
 40
0.593749999999934
 40
0.593749999999934
 40
0.6249999999999504
 40
0.6249999999999504
 40
0.6562499999999671
 40
0.6562499999999671
 40
0.6718749999999729
 40
0.6718749999999729
 40
0.6874999999999789
 40
0.6874999999999789
 40
0.7187499999999865
 40
0.7187499999999865
 40
0.7343749999999904
 40
0.7343749999999904
 40
0.749999999999994
 40
0.749999999999994
 40
0.7812500000000071
 40
0.7812500000000071
 40
0.7968750000000137
 40
0.7968750000000137
 40
0.8125000000000202
 40
0.8125000000000202
 40
0.8281250000000268
 40
0.8281250000000268
 40
0.8359375000000277
 40
0.8359375000000277
 40
0.8437500000000285
 40
0.8437500000000285
 40
0.8593750000000246
 40
0.8593750000000246
 40
0.8671875000000246
 40
0.8671875000000246
 40
0.8750000000000246
 40
0.8750000000000246
 40
0.8906250000000198
 40
0.8906250000000198
 40
0.8984375000000195
 40
0.8984375000000195
 40
0.9062500000000191
 40
0.9062500000000191
 40
0.9218750000000156
 40
0.9218750000000156
 40
0.9375000000000122
 40
0.9375000000000122
 40
0.9687500000000056
 40
0.9687500000000056
 40
0.984375000000003
 40
0.984375000000003
 40
1.0
 40
1.0
 40
1.0
 40
1.0
 10
126.0730100658554
 20
64.03124237432777
 30
0.0
 10
125.300483235199
 20
64.64379046269558
 30
0.0
 10
124.5737312502286
 20
65.27806389020742
 30
0.0
 10
123.1929487217974
 20
66.57901570184908
 30
0.0
 10
122.5391727651302
 20
67.24583786015782
 30
0.0
 10
121.6083456592841
 20
68.26726055722595
 30
0.0
 10
121.3067673270449
 20
68.61104524585444
 30
0.0
 10
120.7269973393582
 20
69.29713882593286
 30
0.0
 10
120.4478415830904
 20
69.6404910210242
 30
0.0
 10
119.6415169048653
 20
70.67130415242498
 30
0.0
 10
119.1452587559568
 20
71.35949055822344
 30
0.0
 10
118.2358395832854
 20
72.73780950214677
 30
0.0
 10
117.8210882502472
 20
73.43167302327104
 30
0.0
 10
117.0998549917333
 20
74.78778856999501
 30
0.0
 10
116.790696723307
 20
75.45337240297683
 30
0.0
 10
116.2817638842594
 20
76.75982914325594
 30
0.0
 10
116.0818270347133
 20
77.40072055419805
 30
0.0
 10
115.8771384052582
 20
78.3425426535958
 30
0.0
 10
115.8248002087919
 20
78.65458824617698
 30
0.0
 10
115.7567794775564
 20
79.26223515780655
 30
0.0
 10
115.7408226034047
 20
79.55835282349449
 30
0.0
 10
115.7503852320248
 20
80.42292708177784
 30
0.0
 10
115.8323950327551
 20
80.96793519492591
 30
0.0
 10
116.0948611987174
 20
81.73113547429649
 30
0.0
 10
116.2052662434677
 20
81.9740836260228
 30
0.0
 10
116.4724619955827
 20
82.43032016670948
 30
0.0
 10
116.629528890051
 20
82.64452692761764
 30
0.0
 10
116.994949597804
 20
83.04316988534898
 30
0.0
 10
117.2039137917296
 20
83.22808140960267
 30
0.0
 10
117.6774023058474
 20
83.5627542661094
 30
0.0
 10
117.9379312142092
 20
83.70984055402344
 30
0.0
 10
118.5085076415788
 20
83.96242141479033
 30
0.0
 10
118.8185328707282
 20
84.06793411502748
 30
0.0
 10
119.3238385804574
 20
84.19271166133567
 30
0.0
 10
119.4997783217646
 20
84.22879624750349
 30
0.0
 10
119.8599976988084
 20
84.28829631944962
 30
0.0
 10
120.0446314321453
 20
84.31186181689923
 30
0.0
 10
120.6119519165103
 20
84.36425818309961
 30
0.0
 10
121.0080110491965
 20
84.37486041425174
 30
0.0
 10
121.6291098423724
 20
84.35398123739171
 30
0.0
 10
121.8406560623116
 20
84.34087338582031
 30
0.0
 10
122.2729623239223
 20
84.30208934969087
 30
0.0
 10
122.4934458827892
 20
84.27637410067786
 30
0.0
 10
123.1569237379857
 20
84.18193750919273
 30
0.0
 10
123.605737312351
 20
84.09570434808669
 30
0.0
 10
124.5154687360087
 20
83.8791911312823
 30
0.0
 10
124.978944117669
 20
83.74803979667172
 30
0.0
 10
126.368902016471
 20
83.29515331719726
 30
0.0
 10
127.2798613125808
 20
82.9208046524406
 30
0.0
 10
128.6250754448668
 20
82.26440580396499
 30
0.0
 10
129.0650063682515
 20
82.03188107240608
 30
0.0
 10
129.9208339177604
 20
81.54660926338292
 30
0.0
 10
130.3382398250825
 20
81.29311108691679
 30
0.0
 10
131.1536660644527
 20
80.7658636724801
 30
0.0
 10
131.5516785502637
 20
80.49210677801601
 30
0.0
 10
132.3292297247882
 20
79.92509144908365
 30
0.0
 10
132.709385066563
 20
79.63115966144859
 30
0.0
 10
133.8030016148365
 20
78.73752866988581
 30
0.0
 10
134.477458624908
 20
78.12096976079202
 30
0.0
 10
135.4176659152414
 20
77.16736679230502
 30
0.0
 10
135.719055753019
 20
76.84467311562136
 30
0.0
 10
136.298583516122
 20
76.18972442977889
 30
0.0
 10
136.5775016413405
 20
75.85646077346225
 30
0.0
 10
137.373890240079
 20
74.84977690014272
 30
0.0
 10
137.8489798396368
 20
74.1729628930418
 30
0.0
 10
138.6963201795853
 20
72.80762871577315
 30
0.0
 10
139.0685211878003
 20
72.11910811137781
 30
0.0
 10
139.5497621213978
 20
71.0771579403515
 30
0.0
 10
139.6967936950327
 20
70.72915243119162
 30
0.0
 10
139.961661016326
 20
70.03840282950668
 30
0.0
 10
140.0799519496977
 20
69.69469859972891
 30
0.0
 10
140.392593793431
 20
68.66867801862728
 30
0.0
 10
140.5450693870424
 20
67.99137057149969
 30
0.0
 10
140.6848117121815
 20
66.98711505430201
 30
0.0
 10
140.7164827403009
 20
66.65433289608846
 30
0.0
 10
140.7479121089503
 20
65.99327924388252
 30
0.0
 10
140.7475592358581
 20
65.66376641401527
 30
0.0
 10
140.6947036742086
 20
64.69558739375006
 30
0.0
 10
140.5917939506743
 20
64.07561240357151
 30
0.0
 10
140.3187932916534
 20
63.19399773526832
 30
0.0
 10
140.2078639713952
 20
62.90826069438113
 30
0.0
 10
139.9403022243746
 20
62.35622243773356
 30
0.0
 10
139.784206199136
 20
62.0916279603508
 30
0.0
 10
139.4271207398055
 20
61.59657756133856
 30
0.0
 10
139.2256392398942
 20
61.3649434886418
 30
0.0
 10
138.8841594158692
 20
61.04546338479191
 30
0.0
 10
138.7637665620994
 20
60.94364938392452
 30
0.0
 10
138.5086744888458
 20
60.7503440713705
 30
0.0
 10
138.373534906209
 20
60.65865239312485
 30
0.0
 10
137.9512844549405
 20
60.40463002257718
 30
0.0
 10
137.6459415060875
 20
60.2619077445312
 30
0.0
 10
137.148847141232
 20
60.0922122824436
 30
0.0
 10
136.9766163597748
 20
60.04306551102257
 30
0.0
 10
136.6182536272632
 20
59.96065009978492
 30
0.0
 10
136.4312882310291
 20
59.92734967389736
 30
0.0
 10
135.8600146179068
 20
59.85430469059286
 30
0.0
 10
135.4626424275455
 20
59.84040811285574
 30
0.0
 10
134.8421566973947
 20
59.8711210940183
 30
0.0
 10
134.6312460266496
 20
59.88996893682235
 30
0.0
 10
134.2011898374083
 20
59.94498431806865
 30
0.0
 10
133.9810409643148
 20
59.9814021040612
 30
0.0
 10
133.3202328615025
 20
60.11424588175431
 30
0.0
 10
132.8766801878741
 20
60.2341799539786
 30
0.0
 10
131.983909977596
 20
60.52942115553246
 30
0.0
 10
131.5313853044409
 20
60.70639233385865
 30
0.0
 10
130.1990060629177
 20
61.29764222474257
 30
0.0
 10
129.3386965350649
 20
61.77108151410307
 30
0.0
 10
128.0777706737601
 20
62.56805675251168
 30
0.0
 10
127.6633601651222
 20
62.84807679695976
 30
0.0
 10
126.855478560034
 20
63.42558321509286
 30
0.0
 10
126.4592734811836
 20
63.7249683301438
 30
0.0
 10
126.0730100658554
 20
64.03124237432777
 30
0.0
  0
LWPOLYLINE
  5
A4
330
1F
100
AcDbEntity
  8
0
  6
Continuous
 62
     7
370
    25
100
AcDbPolyline
 90
       86
 70
   128
 43
0.0
 10
-208.3398920003302
 20
-0.0000000000003371
 10
-208.1630033235248
 20
-9.607389841178028
 10
-207.632578901764
 20
-19.20165714346761
 10
-206.749343231005
 20
-28.76969729179063
 10
-205.5145027049333
 20
-38.29844149420618
 10
-203.9297439671735
 20
-47.77487463230873
 10
-201.9972316075369
 20
-57.18605303831431
 10
-199.7196052054524
 20
-66.51912217455373
 10
-197.0999757246188
 20
-75.7613341912249
 10
-194.141921263802
 20
-84.90006533842217
 10
-190.8494821695827
 20
-93.92283320866033
 10
-187.2271555177291
 20
-102.8173137863416
 10
-183.2798889707325
 20
-111.5713582808789
 10
-179.0130740198948
 20
-120.173009720482
 10
-174.4325386212006
 20
-128.6105192839431
 10
-169.5445392350301
 20
-136.8723623481131
 10
-164.3557522805866
 20
-144.9472542291509
 10
-158.8732650167111
 20
-152.8241655960437
 10
-153.1045658615395
 20
-160.4923375353468
 10
-147.057534164224
 20
-167.9412962465654
 10
-140.7404294426891
 20
-175.1608673481056
 10
-134.1618801021251
 20
-182.1411897742564
 10
-127.3308716496236
 20
-188.872729244219
 10
-120.2567344210556
 20
-195.3462912847878
 10
-112.9491308369554
 20
-201.5530337888945
 10
-105.4180422048161
 20
-207.484479092863
 10
-97.67375508582441
 20
-213.1325255558783
 10
-89.72684724465501
 20
-218.4894586258529
 10
-81.58817320151703
 20
-223.5479613765776
 10
-73.26884940618437
 20
-228.3011245017622
 10
-64.78023905426289
 20
-232.742455752317
 10
-56.13393656643197
 20
-236.8658888039837
 10
-47.34175175186043
 20
-240.6657915432054
 10
-38.41569367742787
 20
-244.1369737599154
 10
-29.3679542647837
 20
-247.2746942367407
 10
-20.21089163764878
 20
-250.0746672249336
 10
-10.95701324210495
 20
-252.5330682981903
 10
-1.618958762928078
 20
-254.6465395763558
 10
7.790517140700918
 20
-256.4121943118853
 10
17.25856225652636
 20
-257.8276208327937
 10
26.77224437379372
 20
-258.8908858367096
 10
36.31856894709401
 20
-259.6005370315335
 10
45.88449684534974
 20
-259.9556051190944
 10
55.45696216169954
 20
-259.9556051190943
 10
65.02289005995527
 20
-259.6005370315334
 10
74.56921463325556
 20
-258.8908858367096
 10
84.08289675052293
 20
-257.8276208327936
 10
93.55094186634834
 20
-256.4121943118852
 10
102.9604177699773
 20
-254.6465395763556
 10
112.2984722491542
 20
-252.5330682981901
 10
121.552350644698
 20
-250.0746672249334
 10
130.7094132718329
 20
-247.2746942367403
 10
139.7571526844771
 20
-244.136973759915
 10
148.6832107589097
 20
-240.6657915432049
 10
157.4753955734811
 20
-236.8658888039832
 10
166.1216980613121
 20
-232.7424557523164
 10
174.6103084132335
 20
-228.3011245017616
 10
182.9296322085662
 20
-223.5479613765769
 10
191.0683062517041
 20
-218.4894586258521
 10
199.0152140928735
 20
-213.1325255558774
 10
206.7595012118652
 20
-207.4844790928622
 10
214.2905898440044
 20
-201.5530337888935
 10
221.5981934281046
 20
-195.3462912847868
 10
228.6723306566726
 20
-188.872729244218
 10
235.5033391091741
 20
-182.1411897742553
 10
242.081888449738
 20
-175.1608673481045
 10
248.3989931712728
 20
-167.9412962465641
 10
254.4460248685885
 20
-160.4923375353457
 10
260.21472402376
 20
-152.8241655960424
 10
265.6972112876353
 20
-144.9472542291496
 10
270.8859982420788
 20
-136.8723623481118
 10
275.7739976282493
 20
-128.6105192839418
 10
280.3545330269434
 20
-120.1730097204807
 10
284.621347977781
 20
-111.5713582808775
 10
288.5686145247777
 20
-102.8173137863402
 10
292.1909411766312
 20
-93.92283320865887
 10
295.4833802708504
 20
-84.9000653384207
 10
298.4414347316672
 20
-75.76133419122339
 10
301.0610642125008
 20
-66.51912217455222
 10
303.338690614585
 20
-57.18605303831274
 10
305.2712029742217
 20
-47.77487463230714
 10
306.8559617119813
 20
-38.29844149420457
 10
308.0908022380531
 20
-28.769697291789
 10
308.974037908812
 20
-19.20165714346596
 10
309.5044623305728
 20
-9.607389841176363
 10
309.6813510073777
 20
-0.0000000000003342
  0
LWPOLYLINE
  5
104
330
1F
100
AcDbEntity
  8
0
  6
Continuous
 62
     7
370
    25
100
AcDbPolyline
 90
       86
 70
   128
 43
0.0
 10
309.6813510073779
 20
0.0000000000022511
 10
309.5044623305724
 20
9.607389841179942
 10
308.9740379088115
 20
19.20165714346951
 10
308.0908022380524
 20
28.76969729179253
 10
306.8559617119807
 20
38.29844149420807
 10
305.2712029742208
 20
47.7748746323106
 10
303.3386906145842
 20
57.18605303831616
 10
301.0610642124997
 20
66.51912217455559
 10
298.441434731666
 20
75.76133419122675
 10
295.483380270849
 20
84.900065338424
 10
292.1909411766297
 20
93.92283320866209
 10
288.5686145247762
 20
102.8173137863434
 10
284.6213479777794
 20
111.5713582808806
 10
280.3545330269417
 20
120.1730097204837
 10
275.7739976282475
 20
128.6105192839448
 10
270.8859982420768
 20
136.8723623481148
 10
265.6972112876332
 20
144.9472542291525
 10
260.2147240237577
 20
152.8241655960453
 10
254.4460248685862
 20
160.4923375353484
 10
248.3989931712705
 20
167.9412962465669
 10
242.0818884497356
 20
175.160867348107
 10
235.5033391091716
 20
182.1411897742578
 10
228.6723306566701
 20
188.8727292442204
 10
221.598193428102
 20
195.3462912847891
 10
214.2905898440017
 20
201.5530337888958
 10
206.7595012118624
 20
207.4844790928642
 10
199.0152140928706
 20
213.1325255558794
 10
191.0683062517012
 20
218.489458625854
 10
182.9296322085632
 20
223.5479613765786
 10
174.6103084132305
 20
228.3011245017632
 10
166.121698061309
 20
232.7424557523178
 10
157.475395573478
 20
236.8658888039846
 10
148.6832107589065
 20
240.6657915432061
 10
139.7571526844739
 20
244.1369737599162
 10
130.7094132718296
 20
247.2746942367413
 10
121.5523506446947
 20
250.0746672249343
 10
112.2984722491509
 20
252.5330682981909
 10
102.960417769974
 20
254.6465395763562
 10
93.550941866345
 20
256.4121943118857
 10
84.08289675051953
 20
257.8276208327941
 10
74.56921463325219
 20
258.8908858367099
 10
65.02289005995189
 20
259.6005370315337
 10
55.45696216169615
 20
259.9556051190945
 10
45.88449684534634
 20
259.9556051190944
 10
36.31856894709061
 20
259.6005370315334
 10
26.77224437379033
 20
258.8908858367095
 10
17.25856225652297
 20
257.8276208327935
 10
7.790517140697548
 20
256.4121943118849
 10
-1.618958762931443
 20
254.6465395763554
 10
-10.9570132421083
 20
252.5330682981898
 10
-20.21089163765211
 20
250.074667224933
 10
-29.367954264787
 20
247.2746942367398
 10
-38.41569367743114
 20
244.1369737599145
 10
-47.34175175186367
 20
240.6657915432043
 10
-56.13393656643517
 20
236.8658888039826
 10
-64.78023905426603
 20
232.7424557523156
 10
-73.26884940618744
 20
228.3011245017608
 10
-81.58817320152007
 20
223.5479613765761
 10
-89.72684724465798
 20
218.4894586258512
 10
-97.67375508582729
 20
213.1325255558765
 10
-105.4180422048189
 20
207.4844790928612
 10
-112.9491308369582
 20
201.5530337888925
 10
-120.2567344210583
 20
195.3462912847857
 10
-127.3308716496262
 20
188.8727292442168
 10
-134.1618801021276
 20
182.1411897742541
 10
-140.7404294426915
 20
175.1608673481032
 10
-147.0575341642263
 20
167.9412962465629
 10
-153.1045658615418
 20
160.4923375353443
 10
-158.8732650167133
 20
152.8241655960411
 10
-164.3557522805886
 20
144.9472542291482
 10
-169.544539235032
 20
136.8723623481104
 10
-174.4325386212024
 20
128.6105192839403
 10
-179.0130740198965
 20
120.1730097204791
 10
-183.2798889707341
 20
111.571358280876
 10
-187.2271555177306
 20
102.8173137863386
 10
-190.8494821695841
 20
93.92283320865727
 10
-194.1419212638033
 20
84.9000653384191
 10
-197.09997572462
 20
75.76133419122178
 10
-199.7196052054535
 20
66.51912217455057
 10
-201.9972316075377
 20
57.18605303831107
 10
-203.9297439671743
 20
47.77487463230547
 10
-205.514502704934
 20
38.29844149420289
 10
-206.7493432310056
 20
28.76969729178729
 10
-207.6325789017644
 20
19.20165714346425
 10
-208.1630033235252
 20
9.607389841174649
 10
-208.33989200033
 20
-0.0000000000013829
  0
LWPOLYLINE
  5
164
330
1F
100
AcDbEntity
  8
0
  6
Continuous
 62
     7
370
    25
100
AcDbPolyline
 90
       35
 70
   128
 43
0.0
 10
128.8520172832637
 20
62.15228642265015
 10
128.8656075097051
 20
62.1426561403712
 10
131.6550784419805
 20
60.71977261501818
 10
132.1118879557304
 20
60.54559149139469
 10
134.5293467295228
 20
59.95536358874282
 10
136.9901129093625
 20
60.11269644396502
 10
138.8120527423728
 20
61.08544087782115
 10
139.6292159206451
 20
62.02282397757659
 10
140.1897382742197
 20
63.12220453444932
 10
140.6024209169003
 20
64.92307337917013
 10
140.5931528025968
 20
66.86670846472745
 10
140.0386336870171
 20
69.47317110761701
 10
138.9285132797447
 20
72.12167276105592
 10
137.3188195101977
 20
74.70833548994241
 10
135.2160974704496
 20
77.20385260761506
 10
133.0578530257369
 20
79.18694723018423
 10
130.5790463157753
 20
80.98035276467014
 10
129.9601991285424
 20
81.36097351304785
 10
126.77278068417
 20
82.94565103955253
 10
123.7963700041053
 20
83.86455715570837
 10
120.9258104177929
 20
84.14405513519433
 10
119.4972039344119
 20
83.96607397884784
 10
118.2969166997424
 20
83.55590836528376
 10
117.3624146718748
 20
82.94271415608056
 10
116.6804881445476
 20
82.15992959526522
 10
116.1701634803108
 20
80.99255759190763
 10
115.9991527122645
 20
79.66435579090262
 10
116.2300109890931
 20
77.73159028793134
 10
116.9041652801117
 20
75.66245115890819
 10
118.2169632317693
 20
73.0581909244388
 10
119.9983204917372
 20
70.40357763288355
 10
122.1499559152011
 20
67.81123779256668
 10
124.6703437863977
 20
65.31122412734788
 10
126.05262427688
 20
64.13598735489159
 10
126.05262427688
 20
64.13598735489161
  0
SPLINE
  5
165
330
1F
100
AcDbEntity
  8
0
  6
Continuous
 62
     7
370
    25
100
AcDbSpline
210
0.0
220
0.0
230
1.0
 70
     8
 71
     3
 72
    14
 73
    10
 74
     0
 42
0.000000001
 43
0.0000000001
 40
0.0
 40
0.0
 40
0.0
 40
0.0
 40
0.0859522814921756
 40
0.2588244967333549
 40
0.4318495834263083
 40
0.6080268979194471
 40
0.7841268410620015
 40
0.9302649703140295
 40
1.0
 40
1.0
 40
1.0
 40
1.0
 10
125.9409195364379
 20
64.01084394878346
 30
0.0
 10
125.4679678081178
 20
64.39842136672239
 30
0.0
 10
124.0437881245013
 20
65.56551697374688
 30
0.0
 10
121.9223128122282
 20
67.66731254164975
 30
0.0
 10
119.7210644091945
 20
70.27885347451196
 30
0.0
 10
117.9095163161267
 20
72.92565433590896
 30
0.0
 10
116.6656191766825
 20
75.38025461058516
 30
0.0
 10
115.9765644169823
 20
77.25772361034485
 30
0.0
 10
115.8930915135275
 20
78.19809871703395
 30
0.0
 10
115.8661266725577
 20
78.50187472283066
 30
0.0
  0
SPLINE
  5
166
330
1F
100
AcDbEntity
  8
0
  6
Continuous
 62
     7
370
    25
100
AcDbSpline
210
0.0
220
0.0
230
1.0
 70
     8
 71
     3
 72
    12
 73
     8
 74
     0
 42
0.000000001
 43
0.0000000001
 40
0.0
 40
0.0
 40
0.0
 40
0.0
 40
0.1365771213156207
 40
0.4258748966021401
 40
0.7148457932968153
 40
0.9470242253617787
 40
1.0
 40
1.0
 40
1.0
 40
1.0
 10
115.8276563083198
 20
78.81886822504789
 30
0.0
 10
115.7920850709054
 20
79.05167938448795
 30
0.0
 10
115.6811668079494
 20
79.77763134115011
 30
0.0
 10
115.8698694808307
 20
80.85925958247356
 30
0.0
 10
116.3504889725748
 20
81.94809710780225
 30
0.0
 10
116.8730088561871
 20
82.63064454414784
 30
0.0
 10
117.2697221720573
 20
82.87543663812234
 30
0.0
 10
117.3434233299694
 20
82.92091396407009
 30
0.0
  0
SPLINE
  5
167
330
1F
100
AcDbEntity
  8
0
  6
Continuous
 62
     7
370
    25
100
AcDbSpline
210
0.0
220
0.0
230
1.0
 70
     8
 71
     3
 72
    17
 73
    13
 74
     0
 42
0.000000001
 43
0.0000000001
 40
0.0
 40
0.0
 40
0.0
 40
0.0
 40
0.0821125490927865
 40
0.1988820855961039
 40
0.2788502369543754
 40
0.3587081374407844
 40
0.4821910567012296
 40
0.6066410644255279
 40
0.7153169824129521
 40
0.7887452440742406
 40
0.8622817060068356
 40
1.0
 40
1.0
 40
1.0
 40
1.0
 10
140.6917997330347
 20
66.158422055218
 30
0.0
 10
140.7111674303637
 20
65.69902864519161
 30
0.0
 10
140.7580772886077
 20
64.58634708184233
 30
0.0
 10
140.3993576437809
 20
63.15179823596523
 30
0.0
 10
139.7556198670792
 20
61.87478159800985
 30
0.0
 10
138.7812857444562
 20
60.75720137692496
 30
0.0
 10
137.1439276338999
 20
59.85043524982421
 30
0.0
 10
134.7004745915828
 20
59.68902920616772
 30
0.0
 10
132.3520830850525
 20
60.2723640824065
 30
0.0
 10
130.4119625902948
 20
61.10575581808536
 30
0.0
 10
128.3017405088342
 20
62.25506833266994
 30
0.0
 10
126.8725910131243
 20
63.3179468252316
 30
0.0
 10
125.9409195364379
 20
64.01084394878346
 30
0.0
  0
SPLINE
  5
168
330
1F
100
AcDbEntity
  8
0
  6
Continuous
 62
     7
370
    25
100
AcDbSpline
210
0.0
220
0.0
230
1.0
 70
     9
 71
     3
 72
   112
 73
   108
 74
     0
 42
0.000000001
 43
0.0000000001
 40
0.0
 40
0.0
 40
0.0
 40
0.0
 40
0.0312499999999907
 40
0.0312499999999907
 40
0.0468749999999859
 40
0.0468749999999859
 40
0.0624999999999812
 40
0.0624999999999812
 40
0.0781249999999764
 40
0.0781249999999764
 40
0.0937499999999717
 40
0.0937499999999717
 40
0.1015624999999671
 40
0.1015624999999671
 40
0.1093749999999626
 40
0.1093749999999626
 40
0.1249999999999572
 40
0.1249999999999572
 40
0.1328124999999541
 40
0.1328124999999541
 40
0.140624999999951
 40
0.140624999999951
 40
0.1562499999999476
 40
0.1562499999999476
 40
0.1718749999999443
 40
0.1718749999999443
 40
0.1874999999999409
 40
0.1874999999999409
 40
0.2031249999999376
 40
0.2031249999999376
 40
0.2187499999999341
 40
0.2187499999999341
 40
0.2499999999999272
 40
0.2499999999999272
 40
0.2656249999999247
 40
0.2656249999999247
 40
0.2812499999999222
 40
0.2812499999999222
 40
0.3124999999999169
 40
0.3124999999999169
 40
0.3437499999999116
 40
0.3437499999999116
 40
0.3749999999999063
 40
0.3749999999999063
 40
0.406249999999901
 40
0.406249999999901
 40
0.4374999999998959
 40
0.4374999999998959
 40
0.4687499999998904
 40
0.4687499999998904
 40
0.4999999999998851
 40
0.4999999999998851
 40
0.5156249999998856
 40
0.5156249999998856
 40
0.531249999999886
 40
0.531249999999886
 40
0.5468749999998864
 40
0.5468749999998864
 40
0.5624999999998868
 40
0.5624999999998868
 40
0.5781249999998872
 40
0.5781249999998872
 40
0.5937499999998877
 40
0.5937499999998877
 40
0.6093749999998881
 40
0.6093749999998881
 40
0.6171874999998881
 40
0.6171874999998881
 40
0.6249999999998881
 40
0.6249999999998881
 40
0.6562499999998917
 40
0.6562499999998917
 40
0.6640624999998931
 40
0.6640624999998931
 40
0.6718749999998948
 40
0.6718749999998948
 40
0.6874999999998975
 40
0.6874999999998975
 40
0.7031249999999005
 40
0.7031249999999005
 40
0.7187499999999032
 40
0.7187499999999032
 40
0.7499999999999091
 40
0.7499999999999091
 40
0.7656249999999129
 40
0.7656249999999129
 40
0.7812499999999166
 40
0.7812499999999166
 40
0.8124999999999268
 40
0.8124999999999268
 40
0.8281249999999305
 40
0.8281249999999305
 40
0.8437499999999344
 40
0.8437499999999344
 40
0.8749999999999461
 40
0.8749999999999461
 40
0.8906249999999518
 40
0.8906249999999518
 40
0.9062499999999575
 40
0.9062499999999575
 40
0.9374999999999731
 40
0.9374999999999731
 40
0.9687499999999891
 40
0.9687499999999891
 40
0.9843749999999944
 40
0.9843749999999944
 40
1.0
 40
1.0
 40
1.0
 40
1.0
 10
140.4820054959842
 20
-64.13599813717905
 30
0.0
 10
140.3558759721637
 20
-63.52534599525349
 30
0.0
 10
140.1565320363015
 20
-62.94864804114489
 30
0.0
 10
139.7223393671713
 20
-62.15111156327156
 30
0.0
 10
139.5544284449855
 20
-61.89664650343807
 30
0.0
 10
139.1730408392314
 20
-61.42418863605307
 30
0.0
 10
138.9590399859718
 20
-61.20495265189479
 30
0.0
 10
138.4776630285297
 20
-60.80643587607028
 30
0.0
 10
138.2081511478302
 20
-60.62622899592039
 30
0.0
 10
137.6197555060698
 20
-60.32182260674578
 30
0.0
 10
137.3024147917932
 20
-60.19774013548754
 30
0.0
 10
136.7889731726096
 20
-60.05778198268898
 30
0.0
 10
136.6115698968744
 20
-60.01884310830938
 30
0.0
 10
136.2435457959101
 20
-59.95733919025505
 30
0.0
 10
136.0524800833248
 20
-59.93485081577215
 30
0.0
 10
135.4713824352155
 20
-59.89400190069328
 30
0.0
 10
135.0696810471858
 20
-59.90135554893321
 30
0.0
 10
134.4463543342241
 20
-59.96256360539729
 30
0.0
 10
134.2351064453526
 20
-59.99134715875157
 30
0.0
 10
133.8056649629425
 20
-60.06559914069269
 30
0.0
 10
133.5863012416603
 20
-60.11137913747488
 30
0.0
 10
132.9283765476159
 20
-60.27107129105838
 30
0.0
 10
132.4897720406485
 20
-60.40682267460861
 30
0.0
 10
131.6122622763197
 20
-60.72871469921709
 30
0.0
 10
131.1722987691018
 20
-60.91540443684156
 30
0.0
 10
130.2961450726864
 20
-61.33192348891794
 30
0.0
 10
129.8670826089954
 20
-61.55818635575297
 30
0.0
 10
129.0236941014623
 20
-62.04032786491215
 30
0.0
 10
128.6093878942993
 20
-62.29624562615518
 30
0.0
 10
127.7934264536506
 20
-62.83368694315928
 30
0.0
 10
127.3899454983264
 20
-63.11663679507737
 30
0.0
 10
126.2129730843515
 20
-63.98746808082729
 30
0.0
 10
125.4716732495805
 20
-64.59665491542756
 30
0.0
 10
124.4105015433681
 20
-65.54253803845502
 30
0.0
 10
124.0653752984768
 20
-65.86328048128267
 30
0.0
 10
123.3911630399223
 20
-66.51473381163019
 30
0.0
 10
123.0610021836549
 20
-66.84659972670826
 30
0.0
 10
122.1030913192341
 20
-67.84637230741218
 30
0.0
 10
121.5076732786157
 20
-68.51783671738484
 30
0.0
 10
120.3945104813375
 20
-69.86850058279383
 30
0.0
 10
119.87685140949
 20
-70.54772169578646
 30
0.0
 10
118.9190920319738
 20
-71.91359617754955
 30
0.0
 10
118.4781719271905
 20
-72.60258315729037
 30
0.0
 10
117.6993213043413
 20
-73.95391270301406
 30
0.0
 10
117.3581986748335
 20
-74.62035845522201
 30
0.0
 10
116.778422855996
 20
-75.93512599361933
 30
0.0
 10
116.53953742245
 20
-76.58376465409725
 30
0.0
 10
116.1808456097029
 20
-77.86110262147544
 30
0.0
 10
116.0653500467188
 20
-78.47449260353389
 30
0.0
 10
115.9749250979603
 20
-79.64899707559688
 30
0.0
 10
115.9996030114745
 20
-80.21022205509922
 30
0.0
 10
116.1652914205864
 20
-81.00733833313531
 30
0.0
 10
116.2425984760133
 20
-81.2658815500816
 30
0.0
 10
116.4424495784437
 20
-81.75609840852207
 30
0.0
 10
116.5647568813791
 20
-81.98812858881
 30
0.0
 10
116.8575394625414
 20
-82.4246685430829
 30
0.0
 10
117.0279853841527
 20
-82.62919361258097
 30
0.0
 10
117.4226159985931
 20
-83.00816080247477
 30
0.0
 10
117.6462970154217
 20
-83.1815405176189
 30
0.0
 10
118.1408794745151
 20
-83.48746432842036
 30
0.0
 10
118.4128154175698
 20
-83.62111869462939
 30
0.0
 10
119.0101324507013
 20
-83.84707715946175
 30
0.0
 10
119.3372319016751
 20
-83.93928086549083
 30
0.0
 10
120.0273207567795
 20
-84.07423198948221
 30
0.0
 10
120.3923925252835
 20
-84.11803717182037
 30
0.0
 10
120.9707277841181
 20
-84.14758438687838
 30
0.0
 10
121.1686406944882
 20
-84.15138944151506
 30
0.0
 10
121.5750229498506
 20
-84.14657772991628
 30
0.0
 10
121.7836679944653
 20
-84.13787571837429
 30
0.0
 10
122.8329481365381
 20
-84.06428622797958
 30
0.0
 10
123.7072097136238
 20
-83.91074478713356
 30
0.0
 10
124.8396601069092
 20
-83.60867869868037
 30
0.0
 10
125.0690891060626
 20
-83.54236459559471
 30
0.0
 10
125.5252928620761
 20
-83.40060041687889
 30
0.0
 10
125.7524685801678
 20
-83.32508881584582
 30
0.0
 10
126.4313409074825
 20
-83.08538829889318
 30
0.0
 10
126.8803925165213
 20
-82.90808167957695
 30
0.0
 10
127.7718078278242
 20
-82.52089174974244
 30
0.0
 10
128.2156851082621
 20
-82.3102069866508
 30
0.0
 10
129.0901558237356
 20
-81.86073331265744
 30
0.0
 10
129.5160165498485
 20
-81.62452579022001
 30
0.0
 10
130.7630111883169
 20
-80.8847347476358
 30
0.0
 10
131.5538339506944
 20
-80.35025838727227
 30
0.0
 10
132.6859038639625
 20
-79.49215204682585
 30
0.0
 10
133.0512610283815
 20
-79.19874069997117
 30
0.0
 10
133.7533747277082
 20
-78.60350964093609
 30
0.0
 10
134.0912635436743
 20
-78.30082673012926
 30
0.0
 10
135.0682030165729
 20
-77.37825055973583
 30
0.0
 10
135.6707766806046
 20
-76.74391391557415
 30
0.0
 10
136.5068119764146
 20
-75.76426316290653
 30
0.0
 10
136.7744889789819
 20
-75.43237828069301
 30
0.0
 10
137.2805075183578
 20
-74.76841433620085
 30
0.0
 10
137.5198277955683
 20
-74.4352560846061
 30
0.0
 10
138.1986856665715
 20
-73.4321820861493
 30
0.0
 10
138.5993635740485
 20
-72.75866853827931
 30
0.0
 10
139.1253849892929
 20
-71.74089402193016
 30
0.0
 10
139.2881632580778
 20
-71.40038479228792
 30
0.0
 10
139.5883155876065
 20
-70.71680842536753
 30
0.0
 10
139.7260574183129
 20
-70.3726330864461
 30
0.0
 10
140.0963227176744
 20
-69.34679648895651
 30
0.0
 10
140.2869608870306
 20
-68.67097863527909
 30
0.0
 10
140.5543861848743
 20
-67.33665799493927
 30
0.0
 10
140.6313178555579
 20
-66.67811161330253
 30
0.0
 10
140.6515814263455
 20
-65.70639321229176
 30
0.0
 10
140.6422917628601
 20
-65.38437358268672
 30
0.0
 10
140.5888487815341
 20
-64.75106437073444
 30
0.0
 10
140.5450702578945
 20
-64.44132420814203
 30
0.0
 10
140.4820054959842
 20
-64.13599813717905
 30
0.0
  0
SPLINE
  5
169
330
1F
100
AcDbEntity
  8
0
  6
Continuous
 62
     7
370
    25
100
AcDbSpline
210
0.0
220
0.0
230
1.0
 70
     8
 71
     3
 72
     9
 73
     5
 74
     0
 42
0.000000001
 43
0.0000000001
 40
0.0
 40
0.0
 40
0.0
 40
0.0
 40
0.4949671546530995
 40
0.9999999999999998
 40
0.9999999999999998
 40
0.9999999999999998
 40
0.9999999999999998
 10
140.5763121437872
 20
-64.01085473107092
 30
0.0
 10
140.6471208938586
 20
-64.39628330119875
 30
0.0
 10
140.79017836627
 20
-65.1749785469428
 30
0.0
 10
140.6898603216464
 20
-66.02166737708725
 30
0.0
 10
140.6391964141305
 20
-66.44927304609857
 30
0.0
  0
SPLINE
  5
16A
330
1F
100
AcDbEntity
  8
0
  6
Continuous
 62
     7
370
    25
100
AcDbSpline
210
0.0
220
0.0
230
1.0
 70
     8
 71
     3
 72
    23
 73
    19
 74
     0
 42
0.000000001
 43
0.0000000001
 40
0.0
 40
0.0
 40
0.0
 40
0.0
 40
0.0150945532304692
 40
0.0855248282599063
 40
0.1685666721710735
 40
0.2516748308841231
 40
0.3358779618090193
 40
0.4200489587945952
 40
0.4855782356200077
 40
0.5510206718734907
 40
0.5958381028943292
 40
0.6405937448058733
 40
0.7097986360307913
 40
0.7795455232851728
 40
0.8404519638530787
 40
0.8816041725272722
 40
0.9228170210701282
 40
1.0
 40
1.0
 40
1.0
 40
1.0
 10
115.7907894316007
 20
-79.41750674785662
 30
0.0
 10
115.7766740084652
 20
-79.29062773587137
 30
0.0
 10
115.6966968722725
 20
-78.5717389059641
 30
0.0
 10
116.0995487848474
 20
-76.94096816203421
 30
0.0
 10
117.0016659496473
 20
-74.58080777161356
 30
0.0
 10
118.5186564157969
 20
-71.9732451583479
 30
0.0
 10
120.466604100336
 20
-69.33143351115042
 30
0.0
 10
122.6547883999111
 20
-66.90879508092407
 30
0.0
 10
124.9470918026804
 20
-64.77381052400303
 30
0.0
 10
127.0199229978746
 20
-63.15034139688949
 30
0.0
 10
128.9819350877586
 20
-61.87511653534849
 30
0.0
 10
131.085498799241
 20
-60.7570712907772
 30
0.0
 10
133.6222579654346
 20
-59.85049103426757
 30
0.0
 10
136.2237098331801
 20
-59.68902943879857
 30
0.0
 10
137.9972226700487
 20
-60.27237657873297
 30
0.0
 10
139.1028928107028
 20
-61.10576622697511
 30
0.0
 10
140.0503101198354
 20
-62.25507930759667
 30
0.0
 10
140.3687313538311
 20
-63.31795768354195
 30
0.0
 10
140.5763121437872
 20
-64.01085473107092
 30
0.0
  0
SPLINE
  5
16B
330
1F
100
AcDbEntity
  8
0
  6
Continuous
 62
     7
370
    25
100
AcDbSpline
210
0.0
220
0.0
230
1.0
 70
     9
 71
     3
 72
   112
 73
   108
 74
     0
 42
0.000000001
 43
0.0000000001
 40
0.0
 40
0.0
 40
0.0
 40
0.0
 40
0.0312499999999995
 40
0.0312499999999995
 40
0.0468750000000023
 40
0.0468750000000023
 40
0.0625000000000051
 40
0.0625000000000051
 40
0.0781250000000078
 40
0.0781250000000078
 40
0.0937500000000106
 40
0.0937500000000106
 40
0.1015625000000119
 40
0.1015625000000119
 40
0.1093750000000133
 40
0.1093750000000133
 40
0.1250000000000161
 40
0.1250000000000161
 40
0.1328125000000148
 40
0.1328125000000148
 40
0.1406250000000135
 40
0.1406250000000135
 40
0.1562500000000157
 40
0.1562500000000157
 40
0.1718750000000179
 40
0.1718750000000179
 40
0.1875000000000201
 40
0.1875000000000201
 40
0.2031250000000223
 40
0.2031250000000223
 40
0.2187500000000247
 40
0.2187500000000247
 40
0.2500000000000295
 40
0.2500000000000295
 40
0.2656250000000316
 40
0.2656250000000316
 40
0.2812500000000338
 40
0.2812500000000338
 40
0.3125000000000384
 40
0.3125000000000384
 40
0.3437500000000429
 40
0.3437500000000429
 40
0.3750000000000474
 40
0.3750000000000474
 40
0.4062500000000521
 40
0.4062500000000521
 40
0.4375000000000565
 40
0.4375000000000565
 40
0.4687500000000611
 40
0.4687500000000611
 40
0.5000000000000658
 40
0.5000000000000658
 40
0.5156250000000707
 40
0.5156250000000707
 40
0.5312500000000757
 40
0.5312500000000757
 40
0.546875000000081
 40
0.546875000000081
 40
0.5625000000000861
 40
0.5625000000000861
 40
0.5781250000000912
 40
0.5781250000000912
 40
0.5937500000000961
 40
0.5937500000000961
 40
0.6093750000001013
 40
0.6093750000001013
 40
0.6171875000001008
 40
0.6171875000001008
 40
0.6250000000001003
 40
0.6250000000001003
 40
0.6562500000000979
 40
0.6562500000000979
 40
0.6640625000000976
 40
0.6640625000000976
 40
0.671875000000097
 40
0.671875000000097
 40
0.6875000000000926
 40
0.6875000000000926
 40
0.7031250000000881
 40
0.7031250000000881
 40
0.7187500000000836
 40
0.7187500000000836
 40
0.7500000000000761
 40
0.7500000000000761
 40
0.7656250000000723
 40
0.7656250000000723
 40
0.7812500000000685
 40
0.7812500000000685
 40
0.8125000000000607
 40
0.8125000000000607
 40
0.828125000000057
 40
0.828125000000057
 40
0.8437500000000531
 40
0.8437500000000531
 40
0.8750000000000424
 40
0.8750000000000424
 40
0.8906250000000357
 40
0.8906250000000357
 40
0.9062500000000287
 40
0.9062500000000287
 40
0.9375000000000191
 40
0.9375000000000191
 40
0.9687500000000094
 40
0.9687500000000094
 40
0.9843750000000046
 40
0.9843750000000046
 40
1.0
 40
1.0
 40
1.0
 40
1.0
 10
17.53646564508169
 20
64.13598735489161
 30
0.0
 10
17.39397291018507
 20
63.52533521296609
 30
0.0
 10
17.31890038019006
 20
62.94863725885738
 30
0.0
 10
17.32955837778972
 20
62.15110078098414
 30
0.0
 10
17.35416136236368
 20
61.89663572115073
 30
0.0
 10
17.44952870475484
 20
61.42417785376576
 30
0.0
 10
17.5202013798495
 20
61.20494186960734
 30
0.0
 10
17.71398861939358
 20
60.80642509378286
 30
0.0
 10
17.8382701233775
 20
60.62621821363297
 30
0.0
 10
18.14178142916041
 20
60.32181182445835
 30
0.0
 10
18.31996316398561
 20
60.19772935320016
 30
0.0
 10
18.62990384568414
 20
60.05777120040156
 30
0.0
 10
18.74034909765142
 20
60.01883232602192
 30
0.0
 10
18.97629902376291
 20
59.95732840796758
 30
0.0
 10
19.10214222409377
 20
59.93484003348475
 30
0.0
 10
19.49460605847717
 20
59.89399111840585
 30
0.0
 10
19.77847347439431
 20
59.90134476664579
 30
0.0
 10
20.23655369531464
 20
59.96255282310983
 30
0.0
 10
20.3946421109447
 20
59.99133637646417
 30
0.0
 10
20.72160805652677
 20
60.06558835840531
 30
0.0
 10
20.89141547110048
 20
60.1113683551876
 30
0.0
 10
21.40872098141799
 20
60.27106050877108
 30
0.0
 10
21.76406476225531
 20
60.40681189232118
 30
0.0
 10
22.49340102499435
 20
60.72870391692962
 30
0.0
 10
22.86833280599193
 20
60.91539365455428
 30
0.0
 10
23.63186059513161
 20
61.33191270663061
 30
0.0
 10
24.01418281864299
 20
61.55817557346557
 30
0.0
 10
24.78032630903261
 20
62.04031708262473
 30
0.0
 10
25.16414722050766
 20
62.29623484386764
 30
0.0
 10
25.93365155716129
 20
62.83367616087179
 30
0.0
 10
26.3211479517338
 20
63.11662601278996
 30
0.0
 10
27.47068127749898
 20
63.98745729853992
 30
0.0
 10
28.22038246195504
 20
64.59664413314
 30
0.0
 10
29.32702348392314
 20
65.54252725616755
 30
0.0
 10
29.69285734772812
 20
65.8632696989952
 30
0.0
 10
30.41905907177391
 20
66.51472302934276
 30
0.0
 10
30.78063850257202
 20
66.84658894442081
 30
0.0
 10
31.84719549935417
 20
67.84636152512468
 30
0.0
 10
32.53388276334844
 20
68.51782593509738
 30
0.0
 10
33.86409559776998
 20
69.86848980050641
 30
0.0
 10
34.50756644470938
 20
70.54771091349905
 30
0.0
 10
35.75156793039172
 20
71.91358539526213
 30
0.0
 10
36.35372956180756
 20
72.60257237500304
 30
0.0
 10
37.48265862238575
 20
73.95390192072675
 30
0.0
 10
38.0133542902467
 20
74.62034767293459
 30
0.0
 10
39.00259306610863
 20
75.93511521133192
 30
0.0
 10
39.46144465805954
 20
76.58375387180967
 30
0.0
 10
40.29391283054011
 20
77.86109183918795
 30
0.0
 10
40.65753721103637
 20
78.4744818212466
 30
0.0
 10
41.26809510790649
 20
79.64898629330956
 30
0.0
 10
41.51536379550978
 20
80.21021127281205
 30
0.0
 10
41.77864267671928
 20
81.00732755084797
 30
0.0
 10
41.84816820565052
 20
81.26587076779424
 30
0.0
 10
41.94371555080068
 20
81.75608762623468
 30
0.0
 10
41.9700654310089
 20
81.98811780652262
 30
0.0
 10
41.97654582494831
 20
82.42465776079553
 30
0.0
 10
41.95670477464132
 20
82.62918283029355
 30
0.0
 10
41.8653457769534
 20
83.00815002018742
 30
0.0
 10
41.79366395243832
 20
83.18152973533145
 30
0.0
 10
41.59759726866396
 20
83.48745354613296
 30
0.0
 10
41.4730297481954
 20
83.62110791234204
 30
0.0
 10
41.16628750177222
 20
83.84706637717441
 30
0.0
 10
40.98286036856518
 20
83.93927008320348
 30
0.0
 10
40.5664660811913
 20
84.07422120719484
 30
0.0
 10
40.3325623401142
 20
84.11802638953297
 30
0.0
 10
39.94225857292256
 20
84.14757360459109
 30
0.0
 10
39.80556572426099
 20
84.15137865922758
 30
0.0
 10
39.51862760843487
 20
84.14656694762895
 30
0.0
 10
39.36821704601888
 20
84.13786493608681
 30
0.0
 10
38.59702027569612
 20
84.06427544569217
 30
0.0
 10
37.90869652414232
 20
83.91073400484613
 30
0.0
 10
36.96680150440303
 20
83.60866791639292
 30
0.0
 10
36.77348751689279
 20
83.54235381330715
 30
0.0
 10
36.384313295935
 20
83.40058963459133
 30
0.0
 10
36.18814166954511
 20
83.32507803355841
 30
0.0
 10
35.5951958696374
 20
83.08537751660582
 30
0.0
 10
35.19400641045515
 20
82.90807089728952
 30
0.0
 10
34.38109079248333
 20
82.52088096745501
 30
0.0
 10
33.96791680080746
 20
82.3101962043634
 30
0.0
 10
33.13817122455275
 20
81.86072253036998
 30
0.0
 10
32.72616093902332
 20
81.62451500793251
 30
0.0
 10
31.49821392152655
 20
80.88472396534834
 30
0.0
 10
30.69029517139246
 20
80.35024760498492
 30
0.0
 10
29.49416719246187
 20
79.49214126453838
 30
0.0
 10
29.10112052474282
 20
79.19872991768371
 30
0.0
 10
28.33272021622755
 20
78.60349885864859
 30
0.0
 10
27.95616732794734
 20
78.30081594784187
 30
0.0
 10
26.84805640450547
 20
77.37823977744837
 30
0.0
 10
26.1379076781954
 20
76.74390313328665
 30
0.0
 10
25.11320907317569
 20
75.76425238061914
 30
0.0
 10
24.77790669448098
 20
75.43236749840557
 30
0.0
 10
24.12972576535988
 20
74.76840355391344
 30
0.0
 10
23.81567403789632
 20
74.43524530231875
 30
0.0
 10
22.9022918742554
 20
73.43217130386185
 30
0.0
 10
22.33156395482019
 20
72.75865775599192
 30
0.0
 10
21.5308998606613
 20
71.74088323964274
 30
0.0
 10
21.27329391509927
 20
71.40037401000054
 30
0.0
 10
20.7768642775021
 20
70.71679764308015
 30
0.0
 10
20.53732837617818
 20
70.37262230415868
 30
0.0
 10
19.85469135498597
 20
69.3467857066691
 30
0.0
 10
19.44642355742694
 20
68.67096785299162
 30
0.0
 10
18.72441937080975
 20
67.33664721265175
 30
0.0
 10
18.41057005896985
 20
66.67810083101492
 30
0.0
 10
18.01825079433966
 20
65.70638243000425
 30
0.0
 10
17.90038001297862
 20
65.38436280039931
 30
0.0
 10
17.69495042850028
 20
64.75105358844699
 30
0.0
 10
17.60771201252997
 20
64.44131342585428
 30
0.0
 10
17.53646564508169
 20
64.13598735489161
 30
0.0
  0
SPLINE
  5
16C
330
1F
100
AcDbEntity
  8
0
  6
Continuous
 62
     7
370
    25
100
AcDbSpline
210
0.0
220
0.0
230
1.0
 70
     8
 71
     3
 72
    25
 73
    21
 74
     0
 42
0.000000001
 43
0.0000000001
 40
0.0
 40
0.0
 40
0.0
 40
0.0
 40
0.036818957175107
 40
0.0515636568771135
 40
0.1147629203917805
 40
0.178065942207282
 40
0.2527042941732716
 40
0.3274022501568297
 40
0.4030843716826193
 40
0.4787376110911531
 40
0.5376355954977117
 40
0.5964555272398875
 40
0.6367376191732405
 40
0.6769641748001968
 40
0.7391658165958555
 40
0.8018546066592559
 40
0.8565975667621847
 40
0.8935853417264304
 40
0.9306276200548504
 40
1.0
 40
1.0
 40
1.0
 40
1.0
 10
42.15795762630929
 20
82.0148235965196
 30
0.0
 10
42.18390621630727
 20
81.7595084084936
 30
0.0
 10
42.22024630559163
 20
81.40194845131508
 30
0.0
 10
41.93545472802367
 20
80.40247413438384
 30
0.0
 10
41.37691615084664
 20
79.06477387350355
 30
0.0
 10
40.10804786314799
 20
76.95421734953609
 30
0.0
 10
38.36483883849901
 20
74.5769984449618
 30
0.0
 10
36.16548234500843
 20
71.9742681079918
 30
0.0
 10
33.679341575729
 20
69.33114199811568
 30
0.0
 10
31.15858728771212
 20
66.90884127697906
 30
0.0
 10
28.711995152373
 20
64.77378596850936
 30
0.0
 10
26.63857778596698
 20
63.15033303189913
 30
0.0
 10
24.78757789100374
 20
61.87510521915013
 30
0.0
 10
22.90295861987621
 20
60.75706074051202
 30
0.0
 10
20.79961817555421
 20
59.85048017785776
 30
0.0
 10
18.92047361730397
 20
59.68901867388725
 30
0.0
 10
17.88790328339816
 20
60.27236579362242
 30
0.0
 10
17.4174167537129
 20
61.10575544530266
 30
0.0
 10
17.17725517778813
 20
62.25506852499194
 30
0.0
 10
17.35856609140066
 20
63.31794690112928
 30
0.0
 10
17.47676380768703
 20
64.01084394878346
 30
0.0
  0
LWPOLYLINE
  5
16D
330
1F
100
AcDbEntity
  8
0
  6
Continuous
 62
     7
370
    25
100
AcDbPolyline
 90
       35
 70
   128
 43
0.0
 10
24.93872945537629
 20
-62.15008536218982
 10
24.9286386752871
 20
-62.14266692265866
 10
22.46030038734286
 20
-60.71978339730564
 10
22.07819943389175
 20
-60.54560227368213
 10
20.17590211072468
 20
-59.95537437103028
 10
18.50851917909599
 20
-60.11270722625246
 10
17.58017762357693
 20
-61.08545166010859
 10
17.34905338705848
 20
-62.01071926546696
 10
17.36095945097739
 20
-63.12221531673678
 10
17.74476349071015
 20
-64.90077220075085
 10
18.51274845812556
 20
-66.8667192470149
 10
19.92698197529992
 20
-69.43976993837516
 10
21.83051085536873
 20
-72.12168354334337
 10
24.04322250112604
 20
-74.67353985783812
 10
26.6661805722978
 20
-77.20386338990251
 10
29.05002742309914
 20
-79.15641509067899
 10
31.67335475853832
 20
-80.98036354695755
 10
32.28875096151859
 20
-81.36098429533531
 10
35.28783280171917
 20
-82.94566182183997
 10
37.82360868047833
 20
-83.86456793799585
 10
39.97196498992321
 20
-84.1440659174818
 10
40.870795979813
 20
-83.97322502534057
 10
41.52210189938307
 20
-83.55591914757122
 10
41.87347333518328
 20
-82.952870877463
 10
41.9722723754367
 20
-82.15994037755265
 10
41.77375332950137
 20
-81.00919557248664
 10
41.25936144154031
 20
-79.66436657319007
 10
40.21806599098372
 20
-77.75828076507576
 10
38.79401983505534
 20
-75.66246194119561
 10
36.76273400966274
 20
-73.09294912797452
 10
34.36402322295116
 20
-70.403588415171
 10
31.8376216667783
 20
-67.84653157412804
 10
29.05618652357265
 20
-65.31123490963533
 10
27.64002654145138
 20
-64.13599813717905
 10
27.64002654145138
 20
-64.13599813717905
  0
SPLINE
  5
16E
330
1F
100
AcDbEntity
  8
0
  6
Continuous
 62
     7
370
    25
100
AcDbSpline
210
0.0
220
0.0
230
1.0
 70
     8
 71
     3
 72
    10
 73
     6
 74
     0
 42
0.000000001
 43
0.0000000001
 40
0.0
 40
0.0
 40
0.0
 40
0.0
 40
0.5
 40
0.5
 40
1.0
 40
1.0
 40
1.0
 40
1.0
 10
27.7245754303007
 20
-64.01085473107092
 30
0.0
 10
27.96651060694526
 20
-64.20134510397094
 30
0.0
 10
28.20709288632764
 20
-64.39447275181698
 30
0.0
 10
28.68580983820995
 20
-64.78557797367999
 30
0.0
 10
28.92394405740113
 20
-64.98355632487079
 30
0.0
 10
29.16095423429642
 20
-65.18379835860533
 30
0.0
  0
SPLINE
  5
16F
330
1F
100
AcDbEntity
  8
0
  6
Continuous
 62
     7
370
    25
100
AcDbSpline
210
0.0
220
0.0
230
1.0
 70
     8
 71
     3
 72
     9
 73
     5
 74
     0
 42
0.000000001
 43
0.0000000001
 40
0.0
 40
0.0
 40
0.0
 40
0.0
 40
0.4269902731073745
 40
1.0
 40
1.0
 40
1.0
 40
1.0
 10
18.18144810425202
 20
-66.01863109456593
 30
0.0
 10
18.0023746761293
 20
-65.60456175574386
 30
0.0
 10
17.58298941280813
 20
-64.63482224432897
 30
0.0
 10
17.44084233711716
 20
-63.76979378350164
 30
0.0
 10
17.3593906800969
 20
-63.27412406140864
 30
0.0
  0
SPLINE
  5
170
330
1F
100
AcDbEntity
  8
0
  6
Continuous
 62
     7
370
    25
100
AcDbSpline
210
0.0
220
0.0
230
1.0
 70
     8
 71
     3
 72
    15
 73
    11
 74
     0
 42
0.000000001
 43
0.0000000001
 40
0.0
 40
0.0
 40
0.0
 40
0.0
 40
0.0793516725220198
 40
0.1813014287116631
 40
0.3389446103569031
 40
0.4978224154082616
 40
0.6365623932316034
 40
0.7303038180399195
 40
0.824183375596691
 40
1.0
 40
1.0
 40
1.0
 40
1.0
 10
17.29586371236531
 20
-62.7545186580886
 30
0.0
 10
17.2809750245774
 20
-62.46289839634314
 30
0.0
 10
17.24695758950893
 20
-61.79660909940301
 30
0.0
 10
17.52090818654117
 20
-60.76099593806883
 30
0.0
 10
18.3316101370346
 20
-59.84923725737252
 30
0.0
 10
19.98754799296172
 20
-59.6893233561769
 30
0.0
 10
21.84059171893098
 20
-60.27232882496442
 30
0.0
 10
23.50288851391602
 20
-61.10577662997297
 30
0.0
 10
25.40368256455655
 20
-62.25507394059532
 30
0.0
 10
26.80866113237585
 20
-63.31795556551518
 30
0.0
 10
27.7245754303007
 20
-64.01085473107092
 30
0.0
  0
LWPOLYLINE
  5
172
330
1F
100
AcDbEntity
  8
0
  6
Continuous
 62
     7
370
    25
100
AcDbPolyline
 90
       20
 70
   128
 43
0.0
 10
187.4933749632145
 20
-23.85587407881077
 10
187.5943426959863
 20
-23.50794486285948
 10
188.0432995615924
 20
-21.70622098931662
 10
188.4536659634131
 20
-19.62152332979132
 10
188.820092147826
 20
-17.28102910640967
 10
189.1378011891406
 20
-14.71525024069805
 10
189.4026512641301
 20
-11.95763558402408
 10
189.6111896470311
 20
-9.044134860665574
 10
189.7606977211039
 20
-6.012730008176628
 10
189.8492264199601
 20
-2.902940024745665
 10
189.8756216366228
 20
0.2446942213824538
 10
189.8395392690764
 20
3.389138504123268
 10
189.7414497061629
 20
6.489400183443497
 10
189.5826316953434
 20
9.50506260711402
 10
189.3651556722699
 20
12.396812003581
 10
189.0918567694899
 20
15.12694999710077
 10
188.7662978561578
 20
17.65988506371982
 10
188.3927230905871
 20
19.96259652121986
 10
187.9760025911561
 20
22.00506500420905
 10
187.5906966229512
 20
23.52084875859296
  0
LWPOLYLINE
  5
173
330
1F
100
AcDbEntity
  8
0
  6
Continuous
 62
     7
370
    25
100
AcDbPolyline
 90
       23
 70
   128
 43
0.0
 10
183.3353206369891
 20
25.69926478786964
 10
183.3047683165728
 20
25.62965944749334
 10
182.8090363391214
 20
24.29519873783818
 10
182.3429505237632
 20
22.64401295791742
 10
181.912587011888
 20
20.69762783953553
 10
181.5235562500291
 20
18.48141748932302
 10
181.1809298491133
 20
16.02427359845183
 10
180.889174468256
 20
13.35822879525674
 10
180.6520935850292
 20
10.51803905093745
 10
180.472777911314
 20
7.540730582321566
 10
180.3535651011455
 20
4.465117158503976
 10
180.2960092758165
 20
1.331294104008665
 10
180.3008607635307
 20
-1.81988440508433
 10
180.3680563177261
 20
-4.947337937802556
 10
180.4967199415916
 20
-8.010295354523274
 10
180.6851743080244
 20
-10.96882632112986
 10
180.9309626261542
 20
-13.78436186198264
 10
181.2308806693695
 20
-16.4201971654999
 10
181.5810185473113
 20
-18.84197008750973
 10
181.9768116772739
 20
-21.01810911434939
 10
182.4131002905205
 20
-22.92024494582829
 10
182.8841966977602
 20
-24.52358033244126
 10
183.288808521795
 20
-25.5927430731751
  0
LWPOLYLINE
  5
174
330
1F
100
AcDbEntity
  8
0
  6
Continuous
 62
     7
370
    25
100
AcDbPolyline
 90
       13
 70
   128
 43
0.0
 10
-14.19588036894073
 20
-8.08383706932669
 10
-14.32602507905395
 20
-5.022955495027438
 10
-14.39473315544146
 20
-1.896592014230103
 10
-14.4011088832521
 20
1.254496443936387
 10
-14.34506914512344
 20
4.389230622451118
 10
-14.22734450474371
 20
7.466744467339079
 10
-14.04946968283691
 20
10.4469178791813
 10
-13.81376354973106
 20
13.2908997399666
 10
-13.52329889533727
 20
15.96161439682992
 10
-13.181862370634
 20
18.42424499988737
 10
-12.79390512288064
 20
20.64668739312
 10
-12.36448476810579
 20
22.5999686411444
 10
-11.94917088926413
 20
24.10024488333291
  0
LWPOLYLINE
  5
178
330
1F
100
AcDbEntity
  8
0
  6
Continuous
 62
     7
370
    25
100
AcDbPolyline
 90
       56
 70
   128
 43
0.0
 10
73.11254788592572
 20
-27.47673532268832
 10
76.18035006984178
 20
-27.00062163325617
 10
79.17470716335505
 20
-26.17251354870556
 10
82.05658314247255
 20
-25.00320672434671
 10
84.78840834654524
 20
-23.50794486285947
 10
87.33456925624983
 20
-21.7062209893166
 10
89.66187277027705
 20
-19.6215233297913
 10
91.73997892816949
 20
-17.28102910640964
 10
93.54179643810532
 20
-14.71525024069802
 10
95.04383585331778
 20
-11.95763558402403
 10
96.22651579295627
 20
-9.044134860665533
 10
97.07441821533185
 20
-6.01273000817658
 10
97.57648941566912
 20
-2.902940024745618
 10
97.72618412805277
 20
0.2446942213825023
 10
97.52155085297836
 20
3.389138504123318
 10
96.96525729813272
 20
6.489400183443546
 10
96.06455560074458
 20
9.505062607114066
 10
94.83118778488515
 20
12.39681200358105
 10
93.28123268622716
 20
15.12694999710081
 10
91.43489633983241
 20
17.65988506371986
 10
89.31624856358364
 20
19.96259652121989
 10
86.95290917129852
 20
22.00506500420909
 10
84.37568790621723
 20
23.76066381245868
 10
81.61818278888203
 20
25.20650603066081
 10
78.71634211555805
 20
26.32374289437052
 10
75.7079958172153
 20
27.09780951247577
 10
72.63236228852552
 20
27.51861474282723
 10
69.52953711611036
 20
27.58067274570862
 10
66.43997037125181
 20
27.28317450014689
 10
63.4039392813525
 20
26.62999835073788
 10
60.46102315468043
 20
25.6296594474933
 10
57.6495874035569
 20
24.29519873783812
 10
55.00628339253466
 20
22.64401295791735
 10
52.56557063180988
 20
20.69762783953546
 10
50.35926754480771
 20
18.48141748932295
 10
48.41613666637293
 20
16.02427359845175
 10
46.76150967914163
 20
13.35822879525666
 10
45.41695717631823
 20
10.51803905093736
 10
44.40000745600502
 20
7.540730582321473
 10
43.72391801303051
 20
4.465117158503881
 10
43.39750270722939
 20
1.331294104008569
 10
43.42501686130064
 20
-1.819884405084426
 10
43.80610178616845
 20
-4.947337937802653
 10
44.53578945704292
 20
-8.010295354523369
 10
45.60456727922074
 20
-10.96882632112996
 10
46.99850209930477
 20
-13.78436186198273
 10
48.69942184516667
 20
-16.42019716549998
 10
50.68515242669762
 20
-18.84197008750982
 10
52.92980680898383
 20
-21.01810911434947
 10
55.40412248939572
 20
-22.92024494582836
 10
58.07584297906105
 20
-24.52358033244133
 10
60.91013831552706
 20
-25.80721334543841
 10
63.87005912458689
 20
-26.75440986543151
 10
66.91701831187893
 20
-27.35282173723212
 10
70.01129410467335
 20
-27.59464774693831
 10
73.11254788592572
 20
-27.47673532268832
  0
LWPOLYLINE
  5
179
330
1F
100
AcDbEntity
  8
0
  6
Continuous
 62
     7
370
    25
100
AcDbPolyline
 90
        3
 70
   128
 43
0.0
 10
73.91747604849872
 20
-28.47226921119152
 10
77.04020866952927
 20
-27.99093983746982
 10
79.43297459627888
 20
-27.3689725013846
  0
LWPOLYLINE
  5
182
330
1F
100
AcDbEntity
  8
0
  6
Continuous
 62
     8
370
    25
100
AcDbPolyline
 90
        3
 70
   128
 43
0.0
 10
70.74418021228891
 20
28.79723815995006
 10
67.96137384486815
 20
28.6189116449253
 10
67.02539795339034
 20
28.49577940626261
  0
LWPOLYLINE
  5
189
330
1F
100
AcDbEntity
  8
0
  6
Continuous
 62
     8
370
    25
100
AcDbPolyline
 90
        3
 70
   128
 43
0.0
 10
184.0983125393228
 20
-28.60000000000007
 10
184.0106409216954
 20
-28.59554327958707
 10
183.9568026959493
 20
-28.5883875197292
  0
LWPOLYLINE
  5
18C
330
1F
100
AcDbEntity
  8
0
  6
Continuous
 62
     8
370
    25
100
AcDbPolyline
 90
       10
 70
   128
 43
0.0
 10
187.5906966229512
 20
23.52084875859296
 10
187.5215689468666
 20
23.76066381245866
 10
187.0353463952388
 20
25.2065060306608
 10
186.5236735908145
 20
26.32374289437052
 10
185.9932209711022
 20
27.09780951247577
 10
185.4509037972226
 20
27.51861474282724
 10
184.9037920029044
 20
27.58067274570864
 10
184.3590180270862
 20
27.28317450014693
 10
183.8236838316672
 20
26.62999835073792
 10
183.3353206369891
 20
25.69926478786964
  0
LWPOLYLINE
  5
18D
330
1F
100
AcDbEntity
  8
0
  6
Continuous
 62
     8
370
    25
100
AcDbPolyline
 90
        6
 70
   128
 43
0.0
 10
183.288808521795
 20
-25.5927430731751
 10
183.3839594368753
 20
-25.80721334543835
 10
183.905873336273
 20
-26.75440986543146
 10
184.4431344501101
 20
-27.35282173723208
 10
184.9887387581329
 20
-27.59464774693829
 10
185.5355734737919
 20
-27.47673532268831
  0
LINE
  5
18E
330
1F
100
AcDbEntity
  8
0
  6
Continuous
 62
     7
370
    25
100
AcDbLine
 10
71.13696218777803
 20
-28.80000000000011
 30
0.0
 11
70.05683866129718
 21
-28.74441060856119
 31
0.0
  0
LINE
  5
18F
330
1F
100
AcDbEntity
  8
0
  6
Continuous
 62
     7
370
    25
100
AcDbLine
 10
77.68563351942778
 20
-102.0061879292551
 30
0.0
 11
97.68563351942775
 21
-102.0061879292551
 31
0.0
  0
LINE
  5
190
330
1F
100
AcDbEntity
  8
0
  6
Continuous
 62
     7
370
    25
100
AcDbLine
 10
70.25856134942543
 20
28.75479242249049
 30
0.0
 11
71.13696218776855
 21
28.7999999999999
 31
0.0
  0
LINE
  5
191
330
1F
100
AcDbEntity
  8
0
  6
Continuous
 62
     7
370
    25
100
AcDbLine
 10
97.68563351942768
 20
102.0061879292549
 30
0.0
 11
77.68563351942781
 21
102.0061879292549
 31
0.0
  0
LINE
  5
192
330
1F
100
AcDbEntity
  8
0
  6
Continuous
 62
     7
370
    25
100
AcDbLine
 10
49.36339336230929
 20
-265.0000000000003
 30
0.0
 11
50.23495078978584
 21
-265.0000000000003
 31
0.0
  0
LINE
  5
193
330
1F
100
AcDbEntity
  8
0
  6
Continuous
 62
     7
370
    25
100
AcDbLine
 10
50.23495078978527
 20
265.0000000000005
 30
0.0
 11
49.36339336230874
 21
265.0000000000005
 31
0.0
  0
LINE
  5
194
330
1F
100
AcDbEntity
  8
0
  6
Continuous
 62
     7
370
    25
100
AcDbLine
 10
184.0983125393228
 20
28.59999999999993
 30
0.0
 11
183.973581204663
 21
28.59999999999993
 31
0.0
  0
LINE
  5
195
330
1F
100
AcDbEntity
  8
0
  6
Continuous
 62
     7
370
    25
100
AcDbLine
 10
183.9735812046605
 20
-28.60000000000007
 30
0.0
 11
184.0983125393228
 21
-28.60000000000007
 31
0.0
  0
LINE
  5
196
330
1F
100
AcDbEntity
  8
0
  6
Continuous
 62
     7
370
    25
100
AcDbLine
 10
70.72020656136806
 20
-28.6000000000001
 30
0.0
 11
71.25851591213558
 21
-28.6000000000001
 31
0.0
  0
LINE
  5
197
330
1F
100
AcDbEntity
  8
0
  6
Continuous
 62
     7
370
    25
100
AcDbLine
 10
71.25851591213559
 20
28.5999999999999
 30
0.0
 11
70.72020656136809
 21
28.5999999999999
 31
0.0
  0
LINE
  5
198
330
1F
100
AcDbEntity
  8
0
  6
Continuous
 62
     7
370
    25
100
AcDbLine
 10
42.77449890101715
 20
-0.0000000000001054
 30
0.0
 11
42.24126386581018
 21
-0.0000000000001002
 31
0.0
  0
LINE
  5
199
330
1F
100
AcDbEntity
  8
0
  6
Continuous
 62
     7
370
    25
100
AcDbLine
 10
314.2455718957364
 20
-0.0000000000003347
 30
0.0
 11
189.8758099959424
 21
-0.0000000000003349
 31
0.0
  0
LINE
  5
19A
330
1F
100
AcDbEntity
  8
0
  6
Continuous
 62
     7
370
    25
100
AcDbLine
 10
-14.40606218178569
 20
-0.000000000000336
 30
0.0
 11
-214.6472277437374
 21
-0.0000000000003388
 31
0.0
  0
LINE
  5
19B
330
1F
100
AcDbEntity
  8
0
  6
Continuous
 62
     7
370
    25
100
AcDbLine
 10
-178.8872082174904
 20
-27.6425531914897
 30
0.0
 11
-178.8000524747428
 21
-27.6425531914897
 31
0.0
  0
LINE
  5
19C
330
1F
100
AcDbEntity
  8
0
  6
Continuous
 62
     7
370
    25
100
AcDbLine
 10
23.04620882969533
 20
-230.3473230863686
 30
0.0
 11
23.13336457244299
 21
-230.3473230863686
 31
0.0
  0
LINE
  5
19D
330
1F
100
AcDbEntity
  8
0
  6
Continuous
 62
     7
370
    25
100
AcDbLine
 10
-148.7618765292277
 20
-27.59024390243936
 30
0.0
 11
-148.6747207864801
 21
-27.59024390243936
 31
0.0
  0
LINE
  5
19E
330
1F
100
AcDbEntity
  8
0
  6
Continuous
 62
     7
370
    25
100
AcDbLine
 10
23.09831906610823
 20
-200.1069175251173
 30
0.0
 11
23.18547480885589
 21
-200.1069175251173
 31
0.0
  0
LINE
  5
19F
330
1F
100
AcDbEntity
  8
0
  6
Continuous
 62
     7
370
    25
100
AcDbLine
 10
-118.5544728453119
 20
-27.52000000000034
 30
0.0
 11
-118.4673171025642
 21
-27.52000000000034
 31
0.0
  0
LINE
  5
1A0
330
1F
100
AcDbEntity
  8
0
  6
Continuous
 62
     7
370
    25
100
AcDbLine
 10
23.16829566929127
 20
-169.7841264665226
 30
0.0
 11
23.25545141203892
 21
-169.7841264665226
 31
0.0
  0
LINE
  5
1A1
330
1F
100
AcDbEntity
  8
0
  6
Continuous
 62
     7
370
    25
100
AcDbLine
 10
-88.21357688023011
 20
-27.42068965517275
 30
0.0
 11
-88.1264211374825
 21
-27.42068965517275
 31
0.0
  0
LINE
  5
1A2
330
1F
100
AcDbEntity
  8
0
  6
Continuous
 62
     7
370
    25
100
AcDbLine
 10
23.26722810827415
 20
-139.3273332079346
 30
0.0
 11
23.35438385102181
 21
-139.3273332079346
 31
0.0
  0
LINE
  5
1A3
330
1F
100
AcDbEntity
  8
0
  6
Continuous
 62
     7
370
    25
100
AcDbLine
 10
-57.63256985414972
 20
-27.26956521739165
 30
0.0
 11
-57.54541411140208
 21
-27.26956521739165
 31
0.0
  0
LINE
  5
1A4
330
1F
100
AcDbEntity
  8
0
  6
Continuous
 62
     7
370
    25
100
AcDbLine
 10
23.41777747194379
 20
-108.6295117031026
 30
0.0
 11
23.50493321469144
 21
-108.6295117031026
 31
0.0
  0
LINE
  5
1A5
330
1F
100
AcDbEntity
  8
0
  6
Continuous
 62
     7
370
    25
100
AcDbLine
 10
78.477025307345
 20
-145.2708684165529
 30
0.0
 11
79.05413120141195
 21
-145.2144036251713
 31
0.0
  0
LINE
  5
1A6
330
1F
100
AcDbEntity
  8
0
  6
Continuous
 62
     7
370
    25
100
AcDbLine
 10
79.05413120141195
 20
-145.2144036251713
 30
0.0
 11
79.14128694415959
 21
-145.2144036251713
 31
0.0
  0
LINE
  5
1A7
330
1F
100
AcDbEntity
  8
0
  6
Continuous
 62
     7
370
    25
100
AcDbLine
 10
78.47702530734498
 20
-236.3259522642096
 30
0.0
 11
78.83311192283308
 21
-236.3045814420506
 31
0.0
  0
LINE
  5
1A8
330
1F
100
AcDbEntity
  8
0
  6
Continuous
 62
     7
370
    25
100
AcDbLine
 10
78.83311192283308
 20
-236.3045814420506
 30
0.0
 11
78.92026766558077
 21
-236.3045814420506
 31
0.0
  0
LINE
  5
1A9
330
1F
100
AcDbEntity
  8
0
  6
Continuous
 62
     7
370
    25
100
AcDbLine
 10
78.47702530734498
 20
-175.7454775095433
 30
0.0
 11
78.95519876242905
 21
-175.706828552564
 31
0.0
  0
LINE
  5
1AA
330
1F
100
AcDbEntity
  8
0
  6
Continuous
 62
     7
370
    25
100
AcDbLine
 10
78.95519876242905
 20
-175.706828552564
 30
0.0
 11
79.04235450517669
 21
-175.706828552564
 31
0.0
  0
LINE
  5
1AB
330
1F
100
AcDbEntity
  8
0
  6
Continuous
 62
     7
370
    25
100
AcDbLine
 10
78.477025307345
 20
-114.5392307665785
 30
0.0
 11
79.20468056508155
 21
-114.4489498300545
 31
0.0
  0
LINE
  5
1AC
330
1F
100
AcDbEntity
  8
0
  6
Continuous
 62
     7
370
    25
100
AcDbLine
 10
79.20468056508155
 20
-114.4489498300545
 30
0.0
 11
79.29183630782921
 21
-114.4489498300545
 31
0.0
  0
LINE
  5
1AD
330
1F
100
AcDbEntity
  8
0
  6
Continuous
 62
     7
370
    25
100
AcDbLine
 10
78.47702530734498
 20
-206.0788024388567
 30
0.0
 11
78.88522215924601
 21
-206.0506873525961
 31
0.0
  0
LINE
  5
1AE
330
1F
100
AcDbEntity
  8
0
  6
Continuous
 62
     7
370
    25
100
AcDbLine
 10
78.88522215924601
 20
-206.0506873525961
 30
0.0
 11
78.97237790199366
 21
-206.0506873525961
 31
0.0
  0
LINE
  5
1AF
330
1F
100
AcDbEntity
  8
0
  6
Continuous
 62
     7
370
    25
100
AcDbLine
 10
285.9889449281358
 20
-28.35744680851098
 30
0.0
 11
286.0761006708834
 21
-28.35744680851098
 31
0.0
  0
LINE
  5
1B0
330
1F
100
AcDbEntity
  8
0
  6
Continuous
 62
     7
370
    25
100
AcDbLine
 10
255.850176039592
 20
-28.40975609756132
 30
0.0
 11
255.9373317823396
 21
-28.40975609756132
 31
0.0
  0
LINE
  5
1B1
330
1F
100
AcDbEntity
  8
0
  6
Continuous
 62
     7
370
    25
100
AcDbLine
 10
225.6217847833555
 20
-28.48000000000035
 30
0.0
 11
225.7089405261031
 21
-28.48000000000035
 31
0.0
  0
LINE
  5
1B2
330
1F
100
AcDbEntity
  8
0
  6
Continuous
 62
     7
370
    25
100
AcDbLine
 10
195.2453927387262
 20
-28.57931034482792
 30
0.0
 11
195.3325484814739
 21
-28.57931034482792
 31
0.0
  0
LINE
  5
1B3
330
1F
100
AcDbEntity
  8
0
  6
Continuous
 62
     7
370
    25
100
AcDbLine
 10
-178.8872082174904
 20
27.64255319148819
 30
0.0
 11
-178.8000524747428
 21
27.64255319148819
 31
0.0
  0
LINE
  5
1B4
330
1F
100
AcDbEntity
  8
0
  6
Continuous
 62
     7
370
    25
100
AcDbLine
 10
23.0462088296939
 20
230.3473230863685
 30
0.0
 11
23.13336457244156
 21
230.3473230863685
 31
0.0
  0
LINE
  5
1B5
330
1F
100
AcDbEntity
  8
0
  6
Continuous
 62
     7
370
    25
100
AcDbLine
 10
-148.7618765292277
 20
27.59024390243805
 30
0.0
 11
-148.6747207864801
 21
27.59024390243805
 31
0.0
  0
LINE
  5
1B6
330
1F
100
AcDbEntity
  8
0
  6
Continuous
 62
     7
370
    25
100
AcDbLine
 10
23.09831906610701
 20
200.1069175251172
 30
0.0
 11
23.18547480885466
 21
200.1069175251172
 31
0.0
  0
LINE
  5
1B7
330
1F
100
AcDbEntity
  8
0
  6
Continuous
 62
     7
370
    25
100
AcDbLine
 10
-118.5544728453119
 20
27.51999999999925
 30
0.0
 11
-118.4673171025642
 21
27.51999999999925
 31
0.0
  0
LINE
  5
1B8
330
1F
100
AcDbEntity
  8
0
  6
Continuous
 62
     7
370
    25
100
AcDbLine
 10
23.16829566929025
 20
169.7841264665225
 30
0.0
 11
23.25545141203789
 21
169.7841264665225
 31
0.0
  0
LINE
  5
1B9
330
1F
100
AcDbEntity
  8
0
  6
Continuous
 62
     7
370
    25
100
AcDbLine
 10
-88.21357688023011
 20
27.42068965517187
 30
0.0
 11
-88.1264211374825
 21
27.42068965517187
 31
0.0
  0
LINE
  5
1BA
330
1F
100
AcDbEntity
  8
0
  6
Continuous
 62
     7
370
    25
100
AcDbLine
 10
23.26722810827336
 20
139.3273332079345
 30
0.0
 11
23.354383851021
 21
139.3273332079345
 31
0.0
  0
LINE
  5
1BB
330
1F
100
AcDbEntity
  8
0
  6
Continuous
 62
     7
370
    25
100
AcDbLine
 10
-57.63256985414974
 20
27.26956521739098
 30
0.0
 11
-57.54541411140208
 21
27.26956521739098
 31
0.0
  0
LINE
  5
1BC
330
1F
100
AcDbEntity
  8
0
  6
Continuous
 62
     7
370
    25
100
AcDbLine
 10
23.41777747194321
 20
108.6295117031025
 30
0.0
 11
23.50493321469086
 21
108.6295117031025
 31
0.0
  0
LINE
  5
1BD
330
1F
100
AcDbEntity
  8
0
  6
Continuous
 62
     7
370
    25
100
AcDbLine
 10
78.88522215924473
 20
206.0506873525964
 30
0.0
 11
78.97237790199238
 21
206.0506873525964
 31
0.0
  0
LINE
  5
1BE
330
1F
100
AcDbEntity
  8
0
  6
Continuous
 62
     7
370
    25
100
AcDbLine
 10
78.47702530734377
 20
206.0788024388571
 30
0.0
 11
78.88522215924473
 21
206.0506873525964
 31
0.0
  0
LINE
  5
1BF
330
1F
100
AcDbEntity
  8
0
  6
Continuous
 62
     7
370
    25
100
AcDbLine
 10
78.83311192283166
 20
236.3045814420508
 30
0.0
 11
78.92026766557926
 21
236.3045814420508
 31
0.0
  0
LINE
  5
1C0
330
1F
100
AcDbEntity
  8
0
  6
Continuous
 62
     7
370
    25
100
AcDbLine
 10
78.47702530734355
 20
236.3259522642099
 30
0.0
 11
78.83311192283166
 21
236.3045814420508
 31
0.0
  0
LINE
  5
1C1
330
1F
100
AcDbEntity
  8
0
  6
Continuous
 62
     7
370
    25
100
AcDbLine
 10
79.20468056508096
 20
114.4489498300548
 30
0.0
 11
79.2918363078286
 21
114.4489498300548
 31
0.0
  0
LINE
  5
1C2
330
1F
100
AcDbEntity
  8
0
  6
Continuous
 62
     7
370
    25
100
AcDbLine
 10
78.47702530734441
 20
114.5392307665789
 30
0.0
 11
79.20468056508096
 21
114.4489498300548
 31
0.0
  0
LINE
  5
1C3
330
1F
100
AcDbEntity
  8
0
  6
Continuous
 62
     7
370
    25
100
AcDbLine
 10
78.95519876242798
 20
175.7068285525644
 30
0.0
 11
79.04235450517564
 21
175.7068285525644
 31
0.0
  0
LINE
  5
1C4
330
1F
100
AcDbEntity
  8
0
  6
Continuous
 62
     7
370
    25
100
AcDbLine
 10
78.47702530734399
 20
175.7454775095436
 30
0.0
 11
78.95519876242798
 21
175.7068285525644
 31
0.0
  0
LINE
  5
1C5
330
1F
100
AcDbEntity
  8
0
  6
Continuous
 62
     7
370
    25
100
AcDbLine
 10
79.05413120141109
 20
145.2144036251716
 30
0.0
 11
79.14128694415875
 21
145.2144036251716
 31
0.0
  0
LINE
  5
1C6
330
1F
100
AcDbEntity
  8
0
  6
Continuous
 62
     7
370
    25
100
AcDbLine
 10
78.47702530734419
 20
145.2708684165533
 30
0.0
 11
79.05413120141109
 21
145.2144036251716
 31
0.0
  0
LINE
  5
1C7
330
1F
100
AcDbEntity
  8
0
  6
Continuous
 62
     7
370
    25
100
AcDbLine
 10
285.9889449281358
 20
28.35744680851273
 30
0.0
 11
286.0761006708834
 21
28.35744680851273
 31
0.0
  0
LINE
  5
1C8
330
1F
100
AcDbEntity
  8
0
  6
Continuous
 62
     7
370
    25
100
AcDbLine
 10
255.850176039592
 20
28.40975609756286
 30
0.0
 11
255.9373317823396
 21
28.40975609756286
 31
0.0
  0
LINE
  5
1C9
330
1F
100
AcDbEntity
  8
0
  6
Continuous
 62
     7
370
    25
100
AcDbLine
 10
225.6217847833555
 20
28.48000000000168
 30
0.0
 11
225.7089405261031
 21
28.48000000000168
 31
0.0
  0
LINE
  5
1CA
330
1F
100
AcDbEntity
  8
0
  6
Continuous
 62
     7
370
    25
100
AcDbLine
 10
195.2453927387262
 20
28.57931034482902
 30
0.0
 11
195.3325484814739
 21
28.57931034482902
 31
0.0
  0
LINE
  5
1CB
330
1F
100
AcDbEntity
  8
0
  6
Continuous
 62
     7
370
    25
100
AcDbLine
 10
184.1405362741116
 20
-28.5989663234843
 30
0.0
 11
184.0983125393228
 21
-28.60000000000007
 31
0.0
  0
LINE
  5
1CC
330
1F
100
AcDbEntity
  8
0
  6
Continuous
 62
     7
370
    25
100
AcDbLine
 10
73.37916669773125
 20
-28.47226921119152
 30
0.0
 11
70.72020656136806
 21
-28.6000000000001
 31
0.0
  0
LINE
  5
1CD
330
1F
100
AcDbEntity
  8
0
  6
Continuous
 62
     7
370
    25
100
AcDbLine
 10
71.25851591213558
 20
-28.6000000000001
 30
0.0
 11
73.91747604849872
 21
-28.47226921119152
 31
0.0
  0
LINE
  5
1CE
330
1F
100
AcDbEntity
  8
0
  6
Continuous
 62
     7
370
    25
100
AcDbLine
 10
102.5801898459197
 20
-0.2434641281209134
 30
0.0
 11
102.5811105739848
 21
0.0009904470693417
 31
0.0
  0
LINE
  5
1CF
330
1F
100
AcDbEntity
  8
0
  6
Continuous
 62
     7
370
    25
100
AcDbLine
 10
51.38769373988495
 20
-19.76220838002169
 30
0.0
 11
51.46789744150423
 21
-19.74863919516173
 31
0.0
  0
LINE
  5
1D0
330
1F
100
AcDbEntity
  8
0
  6
Continuous
 62
     8
370
    25
100
AcDbLine
 10
77.58711420603716
 20
-102.001322785701
 30
0.0
 11
97.78415270005856
 21
-102.001322785701
 31
0.0
  0
LINE
  5
1D1
330
1F
100
AcDbEntity
  8
0
  6
Continuous
 62
     8
370
    25
100
AcDbLine
 10
97.78415564655226
 20
102.0013227857008
 30
0.0
 11
77.58711325883488
 21
102.0013227857008
 31
0.0
  0
LINE
  5
1D2
330
1F
100
AcDbEntity
  8
0
  6
Continuous
 62
     8
370
    25
100
AcDbLine
 10
126.0526242768799
 20
64.13598735489161
 30
0.0
 11
128.8520172832637
 21
62.15228642265015
 31
0.0
  0
LINE
  5
1D3
330
1F
100
AcDbEntity
  8
0
  6
Continuous
 62
     8
370
    25
100
AcDbLine
 10
27.64002654145138
 20
-64.13599813717905
 30
0.0
 11
24.93872945537629
 21
-62.15008536218982
 31
0.0
  0
LINE
  5
1D4
330
1F
100
AcDbEntity
  8
0
  6
Continuous
 62
     8
370
    25
100
AcDbLine
 10
183.956802695965
 20
28.58838751973164
 30
0.0
 11
184.1167994770524
 21
28.59980184959125
 31
0.0
  0
ARC
  5
1D5
330
1F
100
AcDbEntity
  8
0
  6
Continuous
 62
     7
370
    25
100
AcDbCircle
 10
77.68563351942808
 20
-101.0061879292515
 30
0.0
 40
1.00000000000358
100
AcDbArc
 50
264.3459233388289
 51
269.9999999999846
  0
ARC
  5
1D6
330
1F
100
AcDbEntity
  8
0
  6
Continuous
 62
     7
370
    25
100
AcDbCircle
 10
97.68563351942752
 20
-101.0061879292531
 30
0.0
 40
1.000000000002047
100
AcDbArc
 50
270.0000000000155
 51
275.6540766611782
  0
ARC
  5
1D7
330
1F
100
AcDbEntity
  8
0
  6
Continuous
 62
     7
370
    25
100
AcDbCircle
 10
97.6856335194272
 20
101.0061879292436
 30
0.0
 40
1.000000000011281
100
AcDbArc
 50
84.34592333885785
 51
89.9999999999723
  0
ARC
  5
1D8
330
1F
100
AcDbEntity
  8
0
  6
Continuous
 62
     7
370
    25
100
AcDbCircle
 10
77.68563351942787
 20
101.0061879292553
 30
0.0
 40
0.9999999999996591
100
AcDbArc
 50
90.00000000000246
 51
95.65407666117538
  0
ARC
  5
1D9
330
1F
100
AcDbEntity
  8
0
  6
Continuous
 62
     7
370
    25
100
AcDbCircle
 10
70.60372715256173
 20
-0.3494277427437904
 30
0.0
 40
28.36461569349617
100
AcDbArc
 50
179.2941472731273
 51
0.7058527268726495
  0
ARC
  5
1DA
330
1F
100
AcDbEntity
  8
0
  6
Continuous
 62
     7
370
    25
100
AcDbCircle
 10
94.09198177635357
 20
-2.22020099527175
 30
0.0
 40
108.3064794091527
100
AcDbArc
 50
178.8253975358371
 51
191.0326464220008
  0
ARC
  5
1DB
330
1F
100
AcDbEntity
  8
0
  6
Continuous
 62
     7
370
    25
100
AcDbCircle
 10
70.60372715256175
 20
0.3494277427435677
 30
0.0
 40
28.36461569349618
100
AcDbArc
 50
359.2941472731291
 51
180.7058527268742
  0
ARC
  5
1DC
330
1F
100
AcDbEntity
  8
0
  6
Continuous
 62
     7
370
    25
100
AcDbCircle
 10
96.20114077804442
 20
2.033855157977372
 30
0.0
 40
110.4116138680734
100
AcDbArc
 50
169.0680784533533
 51
181.0554859572069
  0
ARC
  5
1DD
330
1F
100
AcDbEntity
  8
0
  6
Continuous
 62
     7
370
    25
100
AcDbCircle
 10
50.23672608867093
 20
-1.542163302436306
 30
0.0
 40
263.4284132362161
100
AcDbArc
 50
217.4578198841774
 51
323.1734622428092
  0
ARC
  5
1DE
330
1F
100
AcDbEntity
  8
0
  6
Continuous
 62
     7
370
    25
100
AcDbCircle
 10
-151.6364594208141
 20
-27.99159967629205
 30
0.0
 40
2.988809494650267
100
AcDbArc
 50
7.717344478301686
 51
188.0424851295265
  0
ARC
  5
1DF
330
1F
100
AcDbEntity
  8
0
  6
Continuous
 62
     7
370
    25
100
AcDbCircle
 10
51.12897167717985
 20
-0.4339968176025006
 30
0.0
 40
207.6182909386454
100
AcDbArc
 50
187.7439395372308
 51
262.0376173667875
  0
ARC
  5
1E0
330
1F
100
AcDbEntity
  8
0
  6
Continuous
 62
     7
370
    25
100
AcDbCircle
 10
22.76920050066379
 20
-203.077692977244
 30
0.0
 40
2.999798507669988
100
AcDbArc
 50
262.3349255902709
 51
82.02347139302039
  0
ARC
  5
1E1
330
1F
100
AcDbEntity
  8
0
  6
Continuous
 62
     7
370
    25
100
AcDbCircle
 10
51.09381715841739
 20
-0.4433302000736865
 30
0.0
 40
201.6046221598246
100
AcDbArc
 50
187.7386257484318
 51
262.0429311555865
  0
ARC
  5
1E2
330
1F
100
AcDbEntity
  8
0
  6
Continuous
 62
     7
370
    25
100
AcDbCircle
 10
-181.7683678020875
 20
-27.99152652970436
 30
0.0
 40
2.988758650900738
100
AcDbArc
 50
6.705263045232522
 51
187.0324922775606
  0
ARC
  5
1E3
330
1F
100
AcDbEntity
  8
0
  6
Continuous
 62
     7
370
    25
100
AcDbCircle
 10
51.17525072176121
 20
-0.502601362685359
 30
0.0
 40
237.5486681507494
100
AcDbArc
 50
186.7339685725204
 51
263.0475883314978
  0
ARC
  5
1E4
330
1F
100
AcDbEntity
  8
0
  6
Continuous
 62
     7
370
    25
100
AcDbCircle
 10
22.76908316819656
 20
-233.3249726006062
 30
0.0
 40
2.99984959141606
100
AcDbArc
 50
263.3404377302865
 51
83.02517483772771
  0
ARC
  5
1E5
330
1F
100
AcDbEntity
  8
0
  6
Continuous
 62
     7
370
    25
100
AcDbCircle
 10
51.16253169945228
 20
-0.4899307400970515
 30
0.0
 40
231.5600462645956
100
AcDbArc
 50
186.7339685725204
 51
263.0475883314979
  0
ARC
  5
1E6
330
1F
100
AcDbEntity
  8
0
  6
Continuous
 62
     7
370
    25
100
AcDbCircle
 10
-60.44599461606765
 20
-27.99232593361909
 30
0.0
 40
2.989272539760743
100
AcDbArc
 50
13.99190572130051
 51
194.2952821814093
  0
ARC
  5
1E7
330
1F
100
AcDbEntity
  8
0
  6
Continuous
 62
     7
370
    25
100
AcDbCircle
 10
50.95245988285057
 20
-0.2631458334724026
 30
0.0
 40
117.786976494048
100
AcDbArc
 50
193.985983479522
 51
255.7955734244963
  0
ARC
  5
1E8
330
1F
100
AcDbEntity
  8
0
  6
Continuous
 62
     7
370
    25
100
AcDbCircle
 10
22.77018112857617
 20
-111.5374560095074
 30
0.0
 40
2.999333378803147
100
AcDbArc
 50
256.0993221907535
 51
75.81983300374194
  0
ARC
  5
1E9
330
1F
100
AcDbEntity
  8
0
  6
Continuous
 62
     7
370
    25
100
AcDbCircle
 10
50.92144910415391
 20
-0.2663875486420626
 30
0.0
 40
111.7776007079781
100
AcDbArc
 50
193.9797829046318
 51
255.8017739993864
  0
ARC
  5
1EA
330
1F
100
AcDbEntity
  8
0
  6
Continuous
 62
     7
370
    25
100
AcDbCircle
 10
50.21248732986762
 20
-0.4339968176024344
 30
0.0
 40
207.6182909386454
100
AcDbArc
 50
277.9623826332159
 51
352.2560604627723
  0
ARC
  5
1EB
330
1F
100
AcDbEntity
  8
0
  6
Continuous
 62
     7
370
    25
100
AcDbCircle
 10
252.9779184278616
 20
-27.99159967629206
 30
0.0
 40
2.988809494650281
100
AcDbArc
 50
351.9575148704772
 51
172.2826555216977
  0
ARC
  5
1EC
330
1F
100
AcDbEntity
  8
0
  6
Continuous
 62
     7
370
    25
100
AcDbCircle
 10
50.24764184863014
 20
-0.4433302000737339
 30
0.0
 40
201.6046221598246
100
AcDbArc
 50
277.9570688444167
 51
352.2613742515714
  0
ARC
  5
1ED
330
1F
100
AcDbEntity
  8
0
  6
Continuous
 62
     7
370
    25
100
AcDbCircle
 10
78.5722585063837
 20
-203.077692977244
 30
0.0
 40
2.999798507669984
100
AcDbArc
 50
97.97652860697906
 51
277.6650744097326
  0
ARC
  5
1EE
330
1F
100
AcDbEntity
  8
0
  6
Continuous
 62
     7
370
    25
100
AcDbCircle
 10
50.2814912430504
 20
-0.3877570913783377
 30
0.0
 40
177.6625004709634
100
AcDbArc
 50
279.3163153158003
 51
350.9021277801879
  0
ARC
  5
1EF
330
1F
100
AcDbEntity
  8
0
  6
Continuous
 62
     7
370
    25
100
AcDbCircle
 10
222.7602058269544
 20
-27.99171820289131
 30
0.0
 40
2.988888662923421
100
AcDbArc
 50
350.5976939762871
 51
170.9193872316593
  0
ARC
  5
1F0
330
1F
100
AcDbEntity
  8
0
  6
Continuous
 62
     7
370
    25
100
AcDbCircle
 10
50.30496737147862
 20
-0.3850029585415839
 30
0.0
 40
171.6620203806701
100
AcDbArc
 50
279.3134618805594
 51
350.9049812154288
  0
ARC
  5
1F1
330
1F
100
AcDbEntity
  8
0
  6
Continuous
 62
     7
370
    25
100
AcDbCircle
 10
78.57208161997687
 20
-172.74420179358
 30
0.0
 40
2.999718970104206
100
AcDbArc
 50
99.32531653644812
 51
279.019599159779
  0
ARC
  5
1F2
330
1F
100
AcDbEntity
  8
0
  6
Continuous
 62
     7
370
    25
100
AcDbCircle
 10
50.16620828528644
 20
-0.5026013626854727
 30
0.0
 40
237.5486681507493
100
AcDbArc
 50
276.9524116685054
 51
353.2660314274827
  0
ARC
  5
1F3
330
1F
100
AcDbEntity
  8
0
  6
Continuous
 62
     7
370
    25
100
AcDbCircle
 10
283.109826809135
 20
-27.99152652970437
 30
0.0
 40
2.988758650900734
100
AcDbArc
 50
352.9675077224429
 51
173.2947369547671
  0
ARC
  5
1F4
330
1F
100
AcDbEntity
  8
0
  6
Continuous
 62
     7
370
    25
100
AcDbCircle
 10
50.17892730759519
 20
-0.4899307400969686
 30
0.0
 40
231.5600462645956
100
AcDbArc
 50
276.9524116685054
 51
353.2660314274829
  0
ARC
  5
1F5
330
1F
100
AcDbEntity
  8
0
  6
Continuous
 62
     7
370
    25
100
AcDbCircle
 10
78.57237583885093
 20
-233.3249726006062
 30
0.0
 40
2.999849591416049
100
AcDbArc
 50
96.97482516227177
 51
276.6595622697175
  0
ARC
  5
1F6
330
1F
100
AcDbEntity
  8
0
  6
Continuous
 62
     7
370
    25
100
AcDbCircle
 10
50.33942917731497
 20
-0.3300396284444247
 30
0.0
 40
147.7194162646116
100
AcDbArc
 50
281.2433677967661
 51
348.975075299222
  0
ARC
  5
1F7
330
1F
100
AcDbEntity
  8
0
  6
Continuous
 62
     7
370
    25
100
AcDbCircle
 10
192.4018096027554
 20
-27.99192501446913
 30
0.0
 40
2.989021897135136
100
AcDbArc
 50
348.6668058366034
 51
168.9823642924204
  0
ARC
  5
1F8
330
1F
100
AcDbEntity
  8
0
  6
Continuous
 62
     7
370
    25
100
AcDbCircle
 10
50.36238777873411
 20
-0.326150895579905
 30
0.0
 40
141.7196247416905
100
AcDbArc
 50
281.2403380176955
 51
348.9781050782927
  0
ARC
  5
1F9
330
1F
100
AcDbEntity
  8
0
  6
Continuous
 62
     7
370
    25
100
AcDbCircle
 10
78.57179457602973
 20
-142.2693757180182
 30
0.0
 40
2.999585126524798
100
AcDbArc
 50
101.2408348384299
 51
280.9444416243522
  0
ARC
  5
1FA
330
1F
100
AcDbEntity
  8
0
  6
Continuous
 62
     7
370
    25
100
AcDbCircle
 10
50.61436287004064
 20
-0.6815647556675422
 30
0.0
 40
117.3261070241356
100
AcDbArc
 50
284.1478755803104
 51
303.2119600916766
  0
ARC
  5
1FB
330
1F
100
AcDbEntity
  8
0
  6
Continuous
 62
     7
370
    25
100
AcDbCircle
 10
50.63851499724901
 20
-0.7080587123367744
 30
0.0
 40
111.2958750666387
100
AcDbArc
 50
284.1449443661363
 51
294.4711916241312
  0
ARC
  5
1FC
330
1F
100
AcDbEntity
  8
0
  6
Continuous
 62
     7
370
    25
100
AcDbCircle
 10
78.57127787847137
 20
-111.5374560095074
 30
0.0
 40
2.999333378803151
100
AcDbArc
 50
104.1801669962587
 51
283.9006778092492
  0
ARC
  5
1FD
330
1F
100
AcDbEntity
  8
0
  6
Continuous
 62
     7
370
    25
100
AcDbCircle
 10
-91.06035059570787
 20
-27.99192501446913
 30
0.0
 40
2.989021897135116
100
AcDbArc
 50
11.01763570757953
 51
191.3331941634
  0
ARC
  5
1FE
330
1F
100
AcDbEntity
  8
0
  6
Continuous
 62
     7
370
    25
100
AcDbCircle
 10
51.00202982973257
 20
-0.3300396284443773
 30
0.0
 40
147.7194162646116
100
AcDbArc
 50
191.0249247007812
 51
258.756632203237
  0
ARC
  5
1FF
330
1F
100
AcDbEntity
  8
0
  6
Continuous
 62
     7
370
    25
100
AcDbCircle
 10
22.76966443101779
 20
-142.2693757180182
 30
0.0
 40
2.999585126524788
100
AcDbArc
 50
259.0555583756509
 51
78.75916516157015
  0
ARC
  5
200
330
1F
100
AcDbEntity
  8
0
  6
Continuous
 62
     7
370
    25
100
AcDbCircle
 10
50.9790712283135
 20
-0.3261508955797723
 30
0.0
 40
141.7196247416906
100
AcDbArc
 50
191.0218949217105
 51
258.7596619823078
  0
ARC
  5
201
330
1F
100
AcDbEntity
  8
0
  6
Continuous
 62
     7
370
    25
100
AcDbCircle
 10
-121.4187468199069
 20
-27.9917182028913
 30
0.0
 40
2.98888866292341
100
AcDbArc
 50
9.080612768340472
 51
189.4023060237162
  0
ARC
  5
202
330
1F
100
AcDbEntity
  8
0
  6
Continuous
 62
     7
370
    25
100
AcDbCircle
 10
51.05996776399711
 20
-0.3877570913782715
 30
0.0
 40
177.6625004709635
100
AcDbArc
 50
189.0978722198153
 51
260.683684684203
  0
ARC
  5
203
330
1F
100
AcDbEntity
  8
0
  6
Continuous
 62
     7
370
    25
100
AcDbCircle
 10
22.76937738707066
 20
-172.74420179358
 30
0.0
 40
2.999718970104206
100
AcDbArc
 50
260.9804008402239
 51
80.67468346355202
  0
ARC
  5
204
330
1F
100
AcDbEntity
  8
0
  6
Continuous
 62
     7
370
    25
100
AcDbCircle
 10
51.03649163556902
 20
-0.3850029585414537
 30
0.0
 40
171.6620203806702
100
AcDbArc
 50
189.0950187845744
 51
260.6865381194439
  0
ARC
  5
205
330
1F
100
AcDbEntity
  8
0
  6
Continuous
 62
     7
370
    25
100
AcDbCircle
 10
-181.8587949902961
 20
-27.9920678505735
 30
0.0
 40
2.992070929177296
100
AcDbArc
 50
6.708243385165162
 51
89.91780817055163
  0
ARC
  5
206
330
1F
100
AcDbEntity
  8
0
  6
Continuous
 62
     7
370
    25
100
AcDbCircle
 10
51.07537595670476
 20
-0.4899307400969117
 30
0.0
 40
231.5600462645957
100
AcDbArc
 50
186.7339685725204
 51
263.0475883314979
  0
ARC
  5
207
330
1F
100
AcDbEntity
  8
0
  6
Continuous
 62
     7
370
    25
100
AcDbCircle
 10
22.68105630202303
 20
-233.3254934669984
 30
0.0
 40
3.000472493545995
100
AcDbArc
 50
270.1731191660912
 51
83.00987113332629
  0
ARC
  5
208
330
1F
100
AcDbEntity
  8
0
  6
Continuous
 62
     7
370
    25
100
AcDbCircle
 10
49.50572079039368
 20
-1.327978785188842
 30
0.0
 40
263.6720596282452
100
AcDbArc
 50
216.8758003005928
 51
269.9690723342275
  0
ARC
  5
209
330
1F
100
AcDbEntity
  8
0
  6
Continuous
 62
     7
370
    25
100
AcDbCircle
 10
-151.7265699614171
 20
-27.99175565148586
 30
0.0
 40
2.991758484819502
100
AcDbArc
 50
7.712705558213984
 51
89.92114608078699
  0
ARC
  5
20A
330
1F
100
AcDbEntity
  8
0
  6
Continuous
 62
     7
370
    25
100
AcDbCircle
 10
51.00666141566978
 20
-0.443330200073703
 30
0.0
 40
201.6046221598246
100
AcDbArc
 50
187.7386257484318
 51
262.0429311555865
  0
ARC
  5
20B
330
1F
100
AcDbEntity
  8
0
  6
Continuous
 62
     7
370
    25
100
AcDbCircle
 10
22.68102194326991
 20
-203.078287189953
 30
0.0
 40
3.000529048990346
100
AcDbArc
 50
270.173771994199
 51
82.0057040194677
  0
ARC
  5
20C
330
1F
100
AcDbEntity
  8
0
  6
Continuous
 62
     7
370
    25
100
AcDbCircle
 10
-121.5084418904475
 20
-27.99133293891272
 30
0.0
 40
2.991335464123553
100
AcDbArc
 50
9.065649687204436
 51
89.92555184305393
  0
ARC
  5
20D
330
1F
100
AcDbEntity
  8
0
  6
Continuous
 62
     7
370
    25
100
AcDbCircle
 10
50.94933589282131
 20
-0.3850029585415247
 30
0.0
 40
171.6620203806702
100
AcDbArc
 50
189.0950187845744
 51
260.6865381194439
  0
ARC
  5
20E
330
1F
100
AcDbEntity
  8
0
  6
Continuous
 62
     7
370
    25
100
AcDbCircle
 10
22.68098608136481
 20
-172.744891470782
 30
0.0
 40
3.000599947499258
100
AcDbArc
 50
270.174452666437
 51
80.65353640450172
  0
ARC
  5
20F
330
1F
100
AcDbEntity
  8
0
  6
Continuous
 62
     7
370
    25
100
AcDbCircle
 10
-91.15010814521324
 20
-27.99148976621564
 30
0.0
 40
2.991492710502569
100
AcDbArc
 50
10.99992960830807
 51
89.91961337751222
  0
ARC
  5
210
330
1F
100
AcDbEntity
  8
0
  6
Continuous
 62
     7
370
    25
100
AcDbCircle
 10
50.89191548556581
 20
-0.326150895579822
 30
0.0
 40
141.7196247416906
100
AcDbArc
 50
191.0218949217105
 51
258.7596619823078
  0
ARC
  5
211
330
1F
100
AcDbEntity
  8
0
  6
Continuous
 62
     7
370
    25
100
AcDbCircle
 10
22.68095548169311
 20
-142.2701928011332
 30
0.0
 40
3.000689617064623
100
AcDbArc
 50
270.1750317323432
 51
78.733118111983
  0
ARC
  5
212
330
1F
100
AcDbEntity
  8
0
  6
Continuous
 62
     7
370
    25
100
AcDbCircle
 10
-60.53488667704516
 20
-27.99051898633822
 30
0.0
 40
2.990521238416505
100
AcDbArc
 50
13.9502700517028
 51
89.92968370371187
  0
ARC
  5
213
330
1F
100
AcDbEntity
  8
0
  6
Continuous
 62
     7
370
    25
100
AcDbCircle
 10
50.83429336140627
 20
-0.2663875486420603
 30
0.0
 40
111.7776007079781
100
AcDbArc
 50
193.9797829046318
 51
255.8017739993864
  0
ARC
  5
214
330
1F
100
AcDbEntity
  8
0
  6
Continuous
 62
     7
370
    25
100
AcDbCircle
 10
22.68095413066368
 20
-111.5384448061331
 30
0.0
 40
3.00079996570281
100
AcDbArc
 50
270.1750510918716
 51
75.78611545935522
  0
ARC
  5
215
330
1F
100
AcDbEntity
  8
0
  6
Continuous
 62
     7
370
    25
100
AcDbCircle
 10
50.07905254253875
 20
-0.5026013626854632
 30
0.0
 40
237.5486681507493
100
AcDbArc
 50
276.9524116685054
 51
353.2660314274827
  0
ARC
  5
216
330
1F
100
AcDbEntity
  8
0
  6
Continuous
 62
     7
370
    25
100
AcDbCircle
 10
50.1253315871201
 20
-0.433996817602567
 30
0.0
 40
207.6182909386453
100
AcDbArc
 50
277.9623826332159
 51
352.2560604627724
  0
ARC
  5
217
330
1F
100
AcDbEntity
  8
0
  6
Continuous
 62
     7
370
    25
100
AcDbCircle
 10
50.19433550030277
 20
-0.3877570913783662
 30
0.0
 40
177.6625004709634
100
AcDbArc
 50
279.3163153158003
 51
350.9021277801879
  0
ARC
  5
218
330
1F
100
AcDbEntity
  8
0
  6
Continuous
 62
     7
370
    25
100
AcDbCircle
 10
50.25227343456735
 20
-0.3300396284444626
 30
0.0
 40
147.7194162646116
100
AcDbArc
 50
281.2433677967661
 51
348.975075299222
  0
ARC
  5
219
330
1F
100
AcDbEntity
  8
0
  6
Continuous
 62
     7
370
    25
100
AcDbCircle
 10
50.52728124156505
 20
-0.6817783530521005
 30
0.0
 40
117.3258817901578
100
AcDbArc
 50
284.1478659805579
 51
303.1751614254109
  0
ARC
  5
21A
330
1F
100
AcDbEntity
  8
0
  6
Continuous
 62
     7
370
    25
100
AcDbCircle
 10
283.0157544260766
 20
-27.99517419320065
 30
0.0
 40
2.995179996150241
100
AcDbArc
 50
353.052959247614
 51
89.88721518056806
  0
ARC
  5
21B
330
1F
100
AcDbEntity
  8
0
  6
Continuous
 62
     7
370
    25
100
AcDbCircle
 10
252.8835091421582
 20
-27.99545061898974
 30
0.0
 40
2.995456811557096
100
AcDbArc
 50
352.0498606868708
 51
89.88349580736572
  0
ARC
  5
21C
330
1F
100
AcDbEntity
  8
0
  6
Continuous
 62
     7
370
    25
100
AcDbCircle
 10
222.6653473979051
 20
-27.99581632554802
 30
0.0
 40
2.995823066320073
100
AcDbArc
 50
350.6990848852657
 51
89.87845573756166
  0
ARC
  5
21D
330
1F
100
AcDbEntity
  8
0
  6
Continuous
 62
     7
370
    25
100
AcDbCircle
 10
192.3072260335208
 20
-27.99558435114099
 30
0.0
 40
2.995590029240252
100
AcDbArc
 50
348.7633509454196
 51
89.88844269524028
  0
ARC
  5
21E
330
1F
100
AcDbEntity
  8
0
  6
Continuous
 62
     7
370
    25
100
AcDbCircle
 10
50.23317549090023
 20
1.542163302436344
 30
0.0
 40
263.428413236216
100
AcDbArc
 50
37.45781988417731
 51
143.1734622428027
  0
ARC
  5
21F
330
1F
100
AcDbEntity
  8
0
  6
Continuous
 62
     7
370
    25
100
AcDbCircle
 10
252.9779184278616
 20
27.99159967629357
 30
0.0
 40
2.988809494650291
100
AcDbArc
 50
187.7173444783039
 51
8.042485129525013
  0
ARC
  5
220
330
1F
100
AcDbEntity
  8
0
  6
Continuous
 62
     7
370
    25
100
AcDbCircle
 10
50.21248732986776
 20
0.4339968176025386
 30
0.0
 40
207.6182909386455
100
AcDbArc
 50
7.743939537229653
 51
82.0376173667862
  0
ARC
  5
221
330
1F
100
AcDbEntity
  8
0
  6
Continuous
 62
     7
370
    25
100
AcDbCircle
 10
78.57225850638251
 20
203.0776929772442
 30
0.0
 40
2.999798507669964
100
AcDbArc
 50
82.33492559027032
 51
262.0234713930222
  0
ARC
  5
222
330
1F
100
AcDbEntity
  8
0
  6
Continuous
 62
     7
370
    25
100
AcDbCircle
 10
50.24764184863012
 20
0.4433302000737126
 30
0.0
 40
201.6046221598247
100
AcDbArc
 50
7.738625748430592
 51
82.04293115558526
  0
ARC
  5
223
330
1F
100
AcDbEntity
  8
0
  6
Continuous
 62
     7
370
    25
100
AcDbCircle
 10
283.109826809135
 20
27.99152652970614
 30
0.0
 40
2.988758650900745
100
AcDbArc
 50
186.7052630452355
 51
7.032492277558227
  0
ARC
  5
224
330
1F
100
AcDbEntity
  8
0
  6
Continuous
 62
     7
370
    25
100
AcDbCircle
 10
50.16620828528655
 20
0.5026013626854727
 30
0.0
 40
237.5486681507493
100
AcDbArc
 50
6.733968572519296
 51
83.0475883314966
  0
ARC
  5
225
330
1F
100
AcDbEntity
  8
0
  6
Continuous
 62
     7
370
    25
100
AcDbCircle
 10
78.57237583884948
 20
233.3249726006065
 30
0.0
 40
2.999849591416073
100
AcDbArc
 50
83.34043773028509
 51
263.02517483773
  0
ARC
  5
226
330
1F
100
AcDbEntity
  8
0
  6
Continuous
 62
     7
370
    25
100
AcDbCircle
 10
50.17892730759506
 20
0.489930740096817
 30
0.0
 40
231.560046264596
100
AcDbArc
 50
6.733968572519285
 51
83.0475883314966
  0
ARC
  5
227
330
1F
100
AcDbEntity
  8
0
  6
Continuous
 62
     7
370
    25
100
AcDbCircle
 10
50.61430037393378
 20
0.6813846406517619
 30
0.0
 40
117.3262969515569
100
AcDbArc
 50
56.7570239485216
 51
75.85211632496864
  0
ARC
  5
228
330
1F
100
AcDbEntity
  8
0
  6
Continuous
 62
     7
370
    25
100
AcDbCircle
 10
78.57127787847076
 20
111.5374560095077
 30
0.0
 40
2.999333378803147
100
AcDbArc
 50
76.09932219075275
 51
255.8198330037435
  0
ARC
  5
229
330
1F
100
AcDbEntity
  8
0
  6
Continuous
 62
     7
370
    25
100
AcDbCircle
 10
50.63851499725171
 20
0.7080587123444863
 30
0.0
 40
111.2958750666307
100
AcDbArc
 50
65.52880837586939
 51
75.85505563386608
  0
ARC
  5
22A
330
1F
100
AcDbEntity
  8
0
  6
Continuous
 62
     7
370
    25
100
AcDbCircle
 10
51.12897167718
 20
0.4339968176026237
 30
0.0
 40
207.6182909386453
100
AcDbArc
 50
97.96238263321457
 51
172.2560604627712
  0
ARC
  5
22B
330
1F
100
AcDbEntity
  8
0
  6
Continuous
 62
     7
370
    25
100
AcDbCircle
 10
-151.6364594208141
 20
27.99159967629072
 30
0.0
 40
2.988809494650258
100
AcDbArc
 50
171.9575148704754
 51
352.2826555217003
  0
ARC
  5
22C
330
1F
100
AcDbEntity
  8
0
  6
Continuous
 62
     7
370
    25
100
AcDbCircle
 10
51.09381715841768
 20
0.4433302000737173
 30
0.0
 40
201.6046221598247
100
AcDbArc
 50
97.95706884441552
 51
172.2613742515702
  0
ARC
  5
22D
330
1F
100
AcDbEntity
  8
0
  6
Continuous
 62
     7
370
    25
100
AcDbCircle
 10
22.76920050066255
 20
203.0776929772439
 30
0.0
 40
2.999798507669993
100
AcDbArc
 50
277.9765286069813
 51
97.66507440973136
  0
ARC
  5
22E
330
1F
100
AcDbEntity
  8
0
  6
Continuous
 62
     7
370
    25
100
AcDbCircle
 10
51.05996776399726
 20
0.3877570913784704
 30
0.0
 40
177.6625004709634
100
AcDbArc
 50
99.31631531579904
 51
170.9021277801867
  0
ARC
  5
22F
330
1F
100
AcDbEntity
  8
0
  6
Continuous
 62
     7
370
    25
100
AcDbCircle
 10
-121.4187468199069
 20
27.99171820289021
 30
0.0
 40
2.988888662923411
100
AcDbArc
 50
170.5976939762861
 51
350.9193872316612
  0
ARC
  5
230
330
1F
100
AcDbEntity
  8
0
  6
Continuous
 62
     7
370
    25
100
AcDbCircle
 10
51.03649163556926
 20
0.3850029585415484
 30
0.0
 40
171.6620203806703
100
AcDbArc
 50
99.31346188055821
 51
170.9049812154274
  0
ARC
  5
231
330
1F
100
AcDbEntity
  8
0
  6
Continuous
 62
     7
370
    25
100
AcDbCircle
 10
22.76937738706964
 20
172.7442017935799
 30
0.0
 40
2.999718970104158
100
AcDbArc
 50
279.32531653645
 51
99.01959915977824
  0
ARC
  5
232
330
1F
100
AcDbEntity
  8
0
  6
Continuous
 62
     7
370
    25
100
AcDbCircle
 10
51.17525072176142
 20
0.5026013626854821
 30
0.0
 40
237.5486681507494
100
AcDbArc
 50
96.95241166850422
 51
173.2660314274815
  0
ARC
  5
233
330
1F
100
AcDbEntity
  8
0
  6
Continuous
 62
     7
370
    25
100
AcDbCircle
 10
-181.7683678020874
 20
27.99152652970283
 30
0.0
 40
2.988758650900728
100
AcDbArc
 50
172.9675077224415
 51
353.2947369547695
  0
ARC
  5
234
330
1F
100
AcDbEntity
  8
0
  6
Continuous
 62
     7
370
    25
100
AcDbCircle
 10
51.16253169945268
 20
0.4899307400969331
 30
0.0
 40
231.5600462645959
100
AcDbArc
 50
96.9524116685042
 51
173.2660314274815
  0
ARC
  5
235
330
1F
100
AcDbEntity
  8
0
  6
Continuous
 62
     7
370
    25
100
AcDbCircle
 10
22.76908316819512
 20
233.3249726006061
 30
0.0
 40
2.999849591416069
100
AcDbArc
 50
276.9748251622741
 51
96.6595622697158
  0
ARC
  5
236
330
1F
100
AcDbEntity
  8
0
  6
Continuous
 62
     7
370
    25
100
AcDbCircle
 10
51.00202982973268
 20
0.3300396284445857
 30
0.0
 40
147.7194162646115
100
AcDbArc
 50
101.2433677967649
 51
168.9750752992208
  0
ARC
  5
237
330
1F
100
AcDbEntity
  8
0
  6
Continuous
 62
     7
370
    25
100
AcDbCircle
 10
-91.06035059570784
 20
27.99192501446823
 30
0.0
 40
2.989021897135118
100
AcDbArc
 50
168.666805836602
 51
348.9823642924225
  0
ARC
  5
238
330
1F
100
AcDbEntity
  8
0
  6
Continuous
 62
     7
370
    25
100
AcDbCircle
 10
50.97907122831369
 20
0.3261508955798955
 30
0.0
 40
141.7196247416906
100
AcDbArc
 50
101.2403380176943
 51
168.9781050782914
  0
ARC
  5
239
330
1F
100
AcDbEntity
  8
0
  6
Continuous
 62
     7
370
    25
100
AcDbCircle
 10
22.76966443101697
 20
142.2693757180181
 30
0.0
 40
2.9995851265248
100
AcDbArc
 50
281.2408348384317
 51
100.944441624351
  0
ARC
  5
23A
330
1F
100
AcDbEntity
  8
0
  6
Continuous
 62
     7
370
    25
100
AcDbCircle
 10
50.9524598828507
 20
0.2631458334725825
 30
0.0
 40
117.7869764940479
100
AcDbArc
 50
104.2044265755057
 51
166.01401652048
  0
ARC
  5
23B
330
1F
100
AcDbEntity
  8
0
  6
Continuous
 62
     7
370
    25
100
AcDbCircle
 10
-60.44599461606765
 20
27.99232593361842
 30
0.0
 40
2.989272539760746
100
AcDbArc
 50
165.7047178185929
 51
346.0080942787014
  0
ARC
  5
23C
330
1F
100
AcDbEntity
  8
0
  6
Continuous
 62
     7
370
    25
100
AcDbCircle
 10
50.92144910415409
 20
0.2663875486421716
 30
0.0
 40
111.7776007079781
100
AcDbArc
 50
104.1982260006156
 51
166.0202170953701
  0
ARC
  5
23D
330
1F
100
AcDbEntity
  8
0
  6
Continuous
 62
     7
370
    25
100
AcDbCircle
 10
22.77018112857557
 20
111.5374560095073
 30
0.0
 40
2.999333378803127
100
AcDbArc
 50
284.1801669962601
 51
103.9006778092486
  0
ARC
  5
23E
330
1F
100
AcDbEntity
  8
0
  6
Continuous
 62
     7
370
    25
100
AcDbCircle
 10
192.4018096027554
 20
27.99192501447023
 30
0.0
 40
2.989021897135148
100
AcDbArc
 50
191.0176357075816
 51
11.33319416339851
  0
ARC
  5
23F
330
1F
100
AcDbEntity
  8
0
  6
Continuous
 62
     7
370
    25
100
AcDbCircle
 10
50.33942917731518
 20
0.3300396284445573
 30
0.0
 40
147.7194162646116
100
AcDbArc
 50
11.02492470078002
 51
78.75663220323588
  0
ARC
  5
240
330
1F
100
AcDbEntity
  8
0
  6
Continuous
 62
     7
370
    25
100
AcDbCircle
 10
78.57179457602888
 20
142.2693757180185
 30
0.0
 40
2.99958512652477
100
AcDbArc
 50
79.05555837564913
 51
258.7591651615728
  0
ARC
  5
241
330
1F
100
AcDbEntity
  8
0
  6
Continuous
 62
     7
370
    25
100
AcDbCircle
 10
50.36238777873415
 20
0.3261508955798813
 30
0.0
 40
141.7196247416906
100
AcDbArc
 50
11.02189492170936
 51
78.75966198230653
  0
ARC
  5
242
330
1F
100
AcDbEntity
  8
0
  6
Continuous
 62
     7
370
    25
100
AcDbCircle
 10
222.7602058269544
 20
27.99171820289263
 30
0.0
 40
2.988888662923433
100
AcDbArc
 50
189.0806127683428
 51
9.402306023714743
  0
ARC
  5
243
330
1F
100
AcDbEntity
  8
0
  6
Continuous
 62
     7
370
    25
100
AcDbCircle
 10
50.28149124305056
 20
0.3877570913784136
 30
0.0
 40
177.6625004709634
100
AcDbArc
 50
9.097872219814107
 51
80.68368468420178
  0
ARC
  5
244
330
1F
100
AcDbEntity
  8
0
  6
Continuous
 62
     7
370
    25
100
AcDbCircle
 10
78.57208161997582
 20
172.7442017935803
 30
0.0
 40
2.999718970104168
100
AcDbArc
 50
80.98040084022294
 51
260.674683463554
  0
ARC
  5
245
330
1F
100
AcDbEntity
  8
0
  6
Continuous
 62
     7
370
    25
100
AcDbCircle
 10
50.3049673714786
 20
0.3850029585414749
 30
0.0
 40
171.6620203806703
100
AcDbArc
 50
9.095018784573264
 51
80.68653811944264
  0
ARC
  5
246
330
1F
100
AcDbEntity
  8
0
  6
Continuous
 62
     7
370
    25
100
AcDbCircle
 10
-181.858794990296
 20
27.99206785057191
 30
0.0
 40
2.992070929177208
100
AcDbArc
 50
270.0821918294486
 51
353.2917566148378
  0
ARC
  5
247
330
1F
100
AcDbEntity
  8
0
  6
Continuous
 62
     7
370
    25
100
AcDbCircle
 10
51.07537595670507
 20
0.4899307400968906
 30
0.0
 40
231.5600462645959
100
AcDbArc
 50
96.9524116685042
 51
173.2660314274815
  0
ARC
  5
248
330
1F
100
AcDbEntity
  8
0
  6
Continuous
 62
     7
370
    25
100
AcDbCircle
 10
22.6810563020216
 20
233.3254934669983
 30
0.0
 40
3.000472493545993
100
AcDbArc
 50
276.9901288666753
 51
89.82688083391101
  0
ARC
  5
249
330
1F
100
AcDbEntity
  8
0
  6
Continuous
 62
     7
370
    25
100
AcDbCircle
 10
49.50341445198275
 20
1.337276406164324
 30
0.0
 40
263.6627607737301
100
AcDbArc
 50
90.03042757283903
 51
142.5212981302973
  0
ARC
  5
24A
330
1F
100
AcDbEntity
  8
0
  6
Continuous
 62
     7
370
    25
100
AcDbCircle
 10
-151.7265699614172
 20
27.99175565148458
 30
0.0
 40
2.991758484819558
100
AcDbArc
 50
270.078853919216
 51
352.287294441787
  0
ARC
  5
24B
330
1F
100
AcDbEntity
  8
0
  6
Continuous
 62
     7
370
    25
100
AcDbCircle
 10
51.00666141566993
 20
0.4433302000738569
 30
0.0
 40
201.6046221598246
100
AcDbArc
 50
97.9570688444155
 51
172.2613742515702
  0
ARC
  5
24C
330
1F
100
AcDbEntity
  8
0
  6
Continuous
 62
     7
370
    25
100
AcDbCircle
 10
22.68102194326866
 20
203.0782871899529
 30
0.0
 40
3.000529048990355
100
AcDbArc
 50
277.9942959805343
 51
89.82622800580259
  0
ARC
  5
24D
330
1F
100
AcDbEntity
  8
0
  6
Continuous
 62
     7
370
    25
100
AcDbCircle
 10
-121.5084418904478
 20
27.99133293891195
 30
0.0
 40
2.991335464123901
100
AcDbArc
 50
270.0744481569529
 51
350.934350312792
  0
ARC
  5
24E
330
1F
100
AcDbEntity
  8
0
  6
Continuous
 62
     7
370
    25
100
AcDbCircle
 10
50.94933589282181
 20
0.3850029585413637
 30
0.0
 40
171.6620203806705
100
AcDbArc
 50
99.31346188055824
 51
170.9049812154274
  0
ARC
  5
24F
330
1F
100
AcDbEntity
  8
0
  6
Continuous
 62
     7
370
    25
100
AcDbCircle
 10
22.68098608136376
 20
172.744891470782
 30
0.0
 40
3.000599947499299
100
AcDbArc
 50
279.3464635955004
 51
89.82554733356435
  0
ARC
  5
250
330
1F
100
AcDbEntity
  8
0
  6
Continuous
 62
     7
370
    25
100
AcDbCircle
 10
-91.15010814521328
 20
27.99148976621478
 30
0.0
 40
2.991492710502603
100
AcDbArc
 50
270.0803866224894
 51
349.0000703916937
  0
ARC
  5
251
330
1F
100
AcDbEntity
  8
0
  6
Continuous
 62
     7
370
    25
100
AcDbCircle
 10
50.89191548556613
 20
0.3261508955798196
 30
0.0
 40
141.7196247416907
100
AcDbArc
 50
101.2403380176943
 51
168.9781050782914
  0
ARC
  5
252
330
1F
100
AcDbEntity
  8
0
  6
Continuous
 62
     7
370
    25
100
AcDbCircle
 10
22.68095548169229
 20
142.2701928011332
 30
0.0
 40
3.000689617064653
100
AcDbArc
 50
281.2668818880189
 51
89.82496826765828
  0
ARC
  5
253
330
1F
100
AcDbEntity
  8
0
  6
Continuous
 62
     7
370
    25
100
AcDbCircle
 10
-60.53488667704518
 20
27.99051898633754
 30
0.0
 40
2.990521238416493
100
AcDbArc
 50
270.0703162962899
 51
346.0497299482993
  0
ARC
  5
254
330
1F
100
AcDbEntity
  8
0
  6
Continuous
 62
     7
370
    25
100
AcDbCircle
 10
50.83429336140646
 20
0.266387548642129
 30
0.0
 40
111.7776007079781
100
AcDbArc
 50
104.1982260006156
 51
166.0202170953701
  0
ARC
  5
255
330
1F
100
AcDbEntity
  8
0
  6
Continuous
 62
     7
370
    25
100
AcDbCircle
 10
22.6809541306631
 20
111.5384448061331
 30
0.0
 40
3.00079996570281
100
AcDbArc
 50
284.2138845406465
 51
89.82494890813038
  0
ARC
  5
256
330
1F
100
AcDbEntity
  8
0
  6
Continuous
 62
     7
370
    25
100
AcDbCircle
 10
50.07905254253891
 20
0.5026013626855011
 30
0.0
 40
237.5486681507493
100
AcDbArc
 50
6.73396857251929
 51
83.0475883314966
  0
ARC
  5
257
330
1F
100
AcDbEntity
  8
0
  6
Continuous
 62
     7
370
    25
100
AcDbCircle
 10
50.12533158712013
 20
0.43399681760251
 30
0.0
 40
207.6182909386455
100
AcDbArc
 50
7.743939537229661
 51
82.03761736678622
  0
ARC
  5
258
330
1F
100
AcDbEntity
  8
0
  6
Continuous
 62
     7
370
    25
100
AcDbCircle
 10
50.19433550030289
 20
0.3877570913783852
 30
0.0
 40
177.6625004709635
100
AcDbArc
 50
9.097872219814117
 51
80.68368468420176
  0
ARC
  5
259
330
1F
100
AcDbEntity
  8
0
  6
Continuous
 62
     7
370
    25
100
AcDbCircle
 10
50.25227343456753
 20
0.3300396284445668
 30
0.0
 40
147.7194162646115
100
AcDbArc
 50
11.02492470078002
 51
78.75663220323588
  0
ARC
  5
25A
330
1F
100
AcDbEntity
  8
0
  6
Continuous
 62
     7
370
    25
100
AcDbCircle
 10
50.52720722393701
 20
0.6815650341961971
 30
0.0
 40
117.3261067304331
100
AcDbArc
 50
56.78808788108971
 51
75.85212443220943
  0
ARC
  5
25B
330
1F
100
AcDbEntity
  8
0
  6
Continuous
 62
     7
370
    25
100
AcDbCircle
 10
252.8835091421583
 20
27.99545061899122
 30
0.0
 40
2.995456811557046
100
AcDbArc
 50
270.116504192634
 51
7.950139313132067
  0
ARC
  5
25C
330
1F
100
AcDbEntity
  8
0
  6
Continuous
 62
     7
370
    25
100
AcDbCircle
 10
283.0157544260766
 20
27.99517419320239
 30
0.0
 40
2.995179996150283
100
AcDbArc
 50
270.1127848194338
 51
6.947040752387541
  0
ARC
  5
25D
330
1F
100
AcDbEntity
  8
0
  6
Continuous
 62
     7
370
    25
100
AcDbCircle
 10
192.3072260335209
 20
27.99558435114198
 30
0.0
 40
2.995590029240143
100
AcDbArc
 50
270.1115573047589
 51
11.23664905458476
  0
ARC
  5
25E
330
1F
100
AcDbEntity
  8
0
  6
Continuous
 62
     7
370
    25
100
AcDbCircle
 10
222.6653473979051
 20
27.9958163255493
 30
0.0
 40
2.995823066320048
100
AcDbArc
 50
270.1215442624392
 51
9.300915114736774
  0
ARC
  5
25F
330
1F
100
AcDbEntity
  8
0
  6
Continuous
 62
     7
370
    25
100
AcDbCircle
 10
46.78244897739743
 20
-7.406826481023017
 30
0.0
 40
60.98208747826824
100
AcDbArc
 50
180.6360990226955
 51
197.1973596914525
  0
ARC
  5
260
330
1F
100
AcDbEntity
  8
0
  6
Continuous
 62
     7
370
    25
100
AcDbCircle
 10
70.35111188474143
 20
-0.0152701051562954
 30
0.0
 40
28.61765039396772
100
AcDbArc
 50
276.0738788557528
 51
89.26101013675124
  0
ARC
  5
261
330
1F
100
AcDbEntity
  8
0
  6
Continuous
 62
     7
370
    25
100
AcDbCircle
 10
71.25650178635993
 20
0.8304610035607161
 30
0.0
 40
27.76953906948151
100
AcDbArc
 50
72.87601863599232
 51
89.99584433482436
  0
ARC
  5
262
330
1F
100
AcDbEntity
  8
0
  6
Continuous
 62
     8
370
    25
100
AcDbCircle
 10
51.88912041605817
 20
-0.0530826423437768
 30
0.0
 40
265.6457699242026
100
AcDbArc
 50
179.9885508758796
 51
217.4960145683663
  0
ARC
  5
263
330
1F
100
AcDbEntity
  8
0
  6
Continuous
 62
     8
370
    25
100
AcDbCircle
 10
51.02509256101946
 20
-0.0517978916279181
 30
0.0
 40
265.6532992428787
100
AcDbArc
 50
179.9888282938507
 51
216.8993346405833
  0
ARC
  5
264
330
1F
100
AcDbEntity
  8
0
  6
Continuous
 62
     8
370
    25
100
AcDbCircle
 10
51.89703395676855
 20
0.0517323533162563
 30
0.0
 40
265.6536831983732
100
AcDbArc
 50
143.1312510068643
 51
180.0111575548016
  0
ARC
  5
265
330
1F
100
AcDbEntity
  8
0
  6
Continuous
 62
     8
370
    25
100
AcDbCircle
 10
51.0175149711146
 20
0.0530908327288131
 30
0.0
 40
265.6457219083731
100
AcDbArc
 50
142.5001989605742
 51
180.0114508927345
  0
ARC
  5
266
330
1F
100
AcDbEntity
  8
0
  6
Continuous
 62
     8
370
    25
100
AcDbCircle
 10
180.9724524532178
 20
-22.66973075447227
 30
0.0
 40
6.627923231846883
100
AcDbArc
 50
313.5090547938081
 51
349.6907219157614
  0
CIRCLE
  5
2AD
330
1F
100
AcDbEntity
  8
Зоны приземления
100
AcDbCircle
 10
50.9524598828507
 20
0.2631458334725825
 30
0.0
 40
2100.0
  0
ENDSEC
  0
SECTION
  2
OBJECTS
  0
DICTIONARY
  5
C
330
0
100
AcDbDictionary
281
     1
  3
ACAD_CIP_PREVIOUS_PRODUCT_INFO
350
2A5
  3
ACAD_COLOR
350
29A
  3
ACAD_DETAILVIEWSTYLE
350
2A1
  3
ACAD_GROUP
350
D
  3
ACAD_LAYOUT
350
1A
  3
ACAD_MATERIAL
350
268
  3
ACAD_MLEADERSTYLE
350
29D
  3
ACAD_MLINESTYLE
350
17
  3
ACAD_PLOTSETTINGS
350
19
  3
ACAD_PLOTSTYLENAME
350
E
  3
ACAD_SCALELIST
350
47
  3
ACAD_SECTIONVIEWSTYLE
350
29F
  3
ACAD_TABLESTYLE
350
29B
  3
ACAD_VISUALSTYLE
350
281
  3
ACDB_RECOMPOSE_DATA
350
31D
  3
AcDbVariableDictionary
350
2B1
  3
DWGPROPS
350
31E
  0
DICTIONARY
  5
2AE
330
10
100
AcDbDictionary
280
     1
281
     1
  3
ADSK_XREC_LAYER_RECONCILED
360
2AF
  0
XRECORD
  5
2A5
102
{ACAD_REACTORS
330
C
102
}
330
C
100
AcDbXrecord
280
     1
300
ACD
300
2020
300
ACD_F_S
  0
DICTIONARY
  5
29A
102
{ACAD_REACTORS
330
C
102
}
330
C
100
AcDbDictionary
281
     1
  0
DICTIONARY
  5
2A1
102
{ACAD_REACTORS
330
C
102
}
330
C
100
AcDbDictionary
281
     1
  3
Metric50
350
2A2
  0
DICTIONARY
  5
D
102
{ACAD_REACTORS
330
C
102
}
330
C
100
AcDbDictionary
281
     1
  0
DICTIONARY
  5
1A
102
{ACAD_REACTORS
330
C
102
}
330
C
100
AcDbDictionary
281
     1
  3
Layout1
350
1E
  3
Layout2
350
26
  3
Model
350
22
  0
DICTIONARY
  5
268
102
{ACAD_REACTORS
330
C
102
}
330
C
100
AcDbDictionary
281
     1
  3
ByBlock
350
271
  3
ByLayer
350
269
  3
Global
350
279
  0
DICTIONARY
  5
29D
102
{ACAD_REACTORS
330
C
102
}
330
C
100
AcDbDictionary
281
     1
  3
Standard
350
29E
  0
DICTIONARY
  5
17
102
{ACAD_REACTORS
330
C
102
}
330
C
100
AcDbDictionary
281
     1
  3
Standard
350
18
  0
DICTIONARY
  5
19
102
{ACAD_REACTORS
330
C
102
}
330
C
100
AcDbDictionary
281
     1
  0
ACDBDICTIONARYWDFLT
  5
E
102
{ACAD_REACTORS
330
C
102
}
330
C
100
AcDbDictionary
281
     1
  3
Normal
350
F
100
AcDbDictionaryWithDefault
340
F
  0
DICTIONARY
  5
47
102
{ACAD_REACTORS
330
C
102
}
330
C
100
AcDbDictionary
281
     1
  3
A0
350
48
  3
A1
350
49
  3
A2
350
4A
  3
A3
350
4B
  3
A4
350
4C
  3
A5
350
4D
  3
A6
350
4E
  3
A7
350
4F
  3
A8
350
50
  3
A9
350
51
  3
B0
350
52
  3
B1
350
53
  3
B2
350
54
  3
B3
350
55
  3
B4
350
56
  3
B5
350
57
  3
B6
350
58
  3
B7
350
59
  3
B8
350
5A
  3
B9
350
5B
  3
C0
350
5C
  3
C1
350
5D
  3
C2
350
5E
  3
C3
350
5F
  3
C4
350
60
  3
C5
350
61
  3
C6
350
62
  3
C7
350
63
  3
C8
350
64
  3
C9
350
65
  3
D0
350
66
  3
D1
350
67
  3
D2
350
68
  0
DICTIONARY
  5
29F
102
{ACAD_REACTORS
330
C
102
}
330
C
100
AcDbDictionary
281
     1
  3
Metric50
350
2A0
  0
DICTIONARY
  5
29B
102
{ACAD_REACTORS
330
C
102
}
330
C
100
AcDbDictionary
281
     1
  3
Standard
350
29C
  0
DICTIONARY
  5
281
102
{ACAD_REACTORS
330
C
102
}
330
C
100
AcDbDictionary
281
     1
  3
2dWireframe
350
287
  3
Basic
350
286
  3
Brighten
350
28D
  3
ColorChange
350
291
  3
Conceptual
350
28A
  3
Dim
350
28C
  3
EdgeColorOff
350
299
  3
Facepattern
350
290
  3
Flat
350
282
  3
FlatWithEdges
350
283
  3
Gouraud
350
284
  3
GouraudWithEdges
350
285
  3
Hidden
350
289
  3
JitterOff
350
297
  3
Linepattern
350
28F
  3
OverhangOff
350
298
  3
Realistic
350
28B
  3
Shaded
350
296
  3
Shaded with edges
350
295
  3
Shades of Gray
350
292
  3
Sketchy
350
293
  3
Thicken
350
28E
  3
Wireframe
350
288
  3
X-Ray
350
294
  0
XRECORD
  5
31D
102
{ACAD_REACTORS
330
C
102
}
330
C
100
AcDbXrecord
280
     1
 90
        1
330
29C
  0
DICTIONARY
  5
2B1
102
{ACAD_REACTORS
330
C
102
}
330
C
100
AcDbDictionary
281
     1
  3
CANNOSCALE
350
2B7
  3
CMLEADERSTYLE
350
2B3
  3
CTABLESTYLE
350
2B2
  3
CVIEWDETAILSTYLE
350
2B4
  3
CVIEWSECTIONSTYLE
350
2B5
  3
DIMASSOC
350
2C7
  3
INDEXCTL
350
2C6
  3
LAYEREVAL
350
2B9
  3
LAYERNOTIFY
350
2BA
  3
LIGHTINGUNITS
350
2B8
  3
MSLTSCALE
350
2B6
  3
SORTENTS
350
2C5
  3
XCLIPFRAME
350
31B
  0
XRECORD
  5
31E
102
{ACAD_REACTORS
330
C
102
}
330
C
100
AcDbXrecord
280
     1
  1
DWGPROPS COOKIE
  2

  3

  4

  6

  7

  8
REfimov
  9

300
=
301
=
302
=
303
=
304
=
305
=
306
=
307
=
308
=
309
=
 40
0.0057986226851852
 41
2459087.670011574
 42
2459771.950219908
  1

 90
        0
  0
XRECORD
  5
2AF
102
{ACAD_REACTORS
330
2AE
102
}
330
2AE
100
AcDbXrecord
280
     1
290
     1
  0
ACDBDETAILVIEWSTYLE
  5
2A2
102
{ACAD_XDICTIONARY
360
35A
102
}
102
{ACAD_REACTORS
330
2A1
102
}
330
2A1
100
AcDbModelDocViewStyle
 70
     0
  3
Metric50
290
     0
100
AcDbDetailViewStyle
 70
     0
 71
     0
 90
        3
 71
     1
340
11
 40
5.0
340
0
 40
5.0
300

 40
0.0
280
     1
 71
     2
340
16
 90
       25
 71
     3
340
11
 40
5.0
 90
        0
 40
15.0
 90
        1
300
%<\AcVar ViewDetailId>% (%<\AcVar ViewScale \f "%sn">%)
 71
     4
340
16
 90
       25
340
16
 90
       25
280
     0
  0
LAYOUT
  5
1E
102
{ACAD_XDICTIONARY
360
31F
102
}
102
{ACAD_REACTORS
330
1A
102
}
330
1A
100
AcDbPlotSettings
  1

  2
none_device
  4

  6

 40
0.0
 41
0.0
 42
0.0
 43
0.0
 44
0.0
 45
0.0
 46
0.0
 47
0.0
 48
0.0
 49
0.0
140
0.0
141
0.0
142
1.0
143
1.0
 70
   688
 72
     1
 73
     0
 74
     5
  7

 75
    16
147
1.0
148
0.0
149
0.0
100
AcDbLayout
  1
Layout1
 70
     1
 71
     1
 10
0.0
 20
0.0
 11
420.0
 21
297.0
 12
0.0
 22
0.0
 32
0.0
 14
1.000000000000000E+20
 24
1.000000000000000E+20
 34
1.000000000000000E+20
 15
-1.000000000000000E+20
 25
-1.000000000000000E+20
 35
-1.000000000000000E+20
146
0.0
 13
0.0
 23
0.0
 33
0.0
 16
1.0
 26
0.0
 36
0.0
 17
0.0
 27
1.0
 37
0.0
 76
     0
330
1B
  0
LAYOUT
  5
26
102
{ACAD_XDICTIONARY
360
323
102
}
102
{ACAD_REACTORS
330
1A
102
}
330
1A
100
AcDbPlotSettings
  1

  2
none_device
  4

  6

 40
0.0
 41
0.0
 42
0.0
 43
0.0
 44
0.0
 45
0.0
 46
0.0
 47
0.0
 48
0.0
 49
0.0
140
0.0
141
0.0
142
1.0
143
1.0
 70
   688
 72
     1
 73
     0
 74
     5
  7

 75
    16
147
1.0
148
0.0
149
0.0
100
AcDbLayout
  1
Layout2
 70
     1
 71
     2
 10
0.0
 20
0.0
 11
0.0
 21
0.0
 12
0.0
 22
0.0
 32
0.0
 14
0.0
 24
0.0
 34
0.0
 15
0.0
 25
0.0
 35
0.0
146
0.0
 13
0.0
 23
0.0
 33
0.0
 16
1.0
 26
0.0
 36
0.0
 17
0.0
 27
1.0
 37
0.0
 76
     0
330
23
  0
LAYOUT
  5
22
102
{ACAD_XDICTIONARY
360
321
102
}
102
{ACAD_REACTORS
330
1A
102
}
330
1A
100
AcDbPlotSettings
  1

  2
none_device
  4
ANSI_A_(11.00_x_8.50_Inches)
  6

 40
6.349999999999998
 41
19.05
 42
6.350005079999998
 43
19.05000254
 44
279.4
 45
215.9
 46
113.2667430473464
 47
88.89999872999998
 48
0.0
 49
0.0
140
0.0
141
0.0
142
0.015877358490566
143
1.0
 70
  1696
 72
     0
 73
     0
 74
     0
  7

 75
     0
147
0.0179189148389904
148
-1300.490907257244
149
0.0
100
AcDbLayout
  1
Model
 70
     1
 71
     0
 10
0.0
 20
0.0
 11
420.0
 21
297.0
 12
0.0
 22
0.0
 32
0.0
 14
-214.647228141545
 24
-265.0000000000006
 34
0.0
 15
314.2455722936397
 25
265.0000000000006
 35
0.0
146
0.0
 13
0.0
 23
0.0
 33
0.0
 16
1.0
 26
0.0
 36
0.0
 17
0.0
 27
1.0
 37
0.0
 76
     0
330
1F
331
29
  0
MATERIAL
  5
271
102
{ACAD_XDICTIONARY
360
272
102
}
102
{ACAD_REACTORS
330
268
102
}
330
268
100
AcDbMaterial
  1
ByBlock
 72
     0
 43
0.0008202099737533
 43
0.0
 43
0.0
 43
0.0
 43
0.0
 43
0.0008202099737533
 43
0.0
 43
0.0
 43
0.0
 43
0.0
 43
1.0
 43
0.0
 43
0.0
 43
0.0
 43
0.0
 43
1.0
 77
     0
 47
0.0008202099737533
 47
0.0
 47
0.0
 47
0.0
 47
0.0
 47
0.0008202099737533
 47
0.0
 47
0.0
 47
0.0
 47
0.0
 47
1.0
 47
0.0
 47
0.0
 47
0.0
 47
0.0
 47
1.0
171
     0
 49
0.0008202099737533
 49
0.0
 49
0.0
 49
0.0
 49
0.0
 49
0.0008202099737533
 49
0.0
 49
0.0
 49
0.0
 49
0.0
 49
1.0
 49
0.0
 49
0.0
 49
0.0
 49
0.0
 49
1.0
175
     0
142
0.0008202099737533
142
0.0
142
0.0
142
0.0
142
0.0
142
0.0008202099737533
142
0.0
142
0.0
142
0.0
142
0.0
142
1.0
142
0.0
142
0.0
142
0.0
142
0.0
142
1.0
179
     0
144
0.0008202099737533
144
0.0
144
0.0
144
0.0
144
0.0
144
0.0008202099737533
144
0.0
144
0.0
144
0.0
144
0.0
144
1.0
144
0.0
144
0.0
144
0.0
144
0.0
144
1.0
147
0.0008202099737533
147
0.0
147
0.0
147
0.0
147
0.0
147
0.0008202099737533
147
0.0
147
0.0
147
0.0
147
0.0
147
1.0
147
0.0
147
0.0
147
0.0
147
0.0
147
1.0
  0
MATERIAL
  5
269
102
{ACAD_XDICTIONARY
360
26A
102
}
102
{ACAD_REACTORS
330
268
102
}
330
268
100
AcDbMaterial
  1
ByLayer
 72
     0
 43
0.0008202099737533
 43
0.0
 43
0.0
 43
0.0
 43
0.0
 43
0.0008202099737533
 43
0.0
 43
0.0
 43
0.0
 43
0.0
 43
1.0
 43
0.0
 43
0.0
 43
0.0
 43
0.0
 43
1.0
 77
     0
 47
0.0008202099737533
 47
0.0
 47
0.0
 47
0.0
 47
0.0
 47
0.0008202099737533
 47
0.0
 47
0.0
 47
0.0
 47
0.0
 47
1.0
 47
0.0
 47
0.0
 47
0.0
 47
0.0
 47
1.0
171
     0
 49
0.0008202099737533
 49
0.0
 49
0.0
 49
0.0
 49
0.0
 49
0.0008202099737533
 49
0.0
 49
0.0
 49
0.0
 49
0.0
 49
1.0
 49
0.0
 49
0.0
 49
0.0
 49
0.0
 49
1.0
175
     0
142
0.0008202099737533
142
0.0
142
0.0
142
0.0
142
0.0
142
0.0008202099737533
142
0.0
142
0.0
142
0.0
142
0.0
142
1.0
142
0.0
142
0.0
142
0.0
142
0.0
142
1.0
179
     0
144
0.0008202099737533
144
0.0
144
0.0
144
0.0
144
0.0
144
0.0008202099737533
144
0.0
144
0.0
144
0.0
144
0.0
144
1.0
144
0.0
144
0.0
144
0.0
144
0.0
144
1.0
147
0.0008202099737533
147
0.0
147
0.0
147
0.0
147
0.0
147
0.0008202099737533
147
0.0
147
0.0
147
0.0
147
0.0
147
1.0
147
0.0
147
0.0
147
0.0
147
0.0
147
1.0
  0
MATERIAL
  5
279
102
{ACAD_XDICTIONARY
360
27A
102
}
102
{ACAD_REACTORS
330
268
102
}
330
268
100
AcDbMaterial
  1
Global
 72
     0
 43
0.0008202099737533
 43
0.0
 43
0.0
 43
0.0
 43
0.0
 43
0.0008202099737533
 43
0.0
 43
0.0
 43
0.0
 43
0.0
 43
1.0
 43
0.0
 43
0.0
 43
0.0
 43
0.0
 43
1.0
 77
     0
 47
0.0008202099737533
 47
0.0
 47
0.0
 47
0.0
 47
0.0
 47
0.0008202099737533
 47
0.0
 47
0.0
 47
0.0
 47
0.0
 47
1.0
 47
0.0
 47
0.0
 47
0.0
 47
0.0
 47
1.0
171
     0
 49
0.0008202099737533
 49
0.0
 49
0.0
 49
0.0
 49
0.0
 49
0.0008202099737533
 49
0.0
 49
0.0
 49
0.0
 49
0.0
 49
1.0
 49
0.0
 49
0.0
 49
0.0
 49
0.0
 49
1.0
175
     0
142
0.0008202099737533
142
0.0
142
0.0
142
0.0
142
0.0
142
0.0008202099737533
142
0.0
142
0.0
142
0.0
142
0.0
142
1.0
142
0.0
142
0.0
142
0.0
142
0.0
142
1.0
179
     0
144
0.0008202099737533
144
0.0
144
0.0
144
0.0
144
0.0
144
0.0008202099737533
144
0.0
144
0.0
144
0.0
144
0.0
144
1.0
144
0.0
144
0.0
144
0.0
144
0.0
144
1.0
147
0.0008202099737533
147
0.0
147
0.0
147
0.0
147
0.0
147
0.0008202099737533
147
0.0
147
0.0
147
0.0
147
0.0
147
1.0
147
0.0
147
0.0
147
0.0
147
0.0
147
1.0
  0
MLEADERSTYLE
  5
29E
102
{ACAD_XDICTIONARY
360
356
102
}
102
{ACAD_REACTORS
330
29D
102
}
330
29D
100
AcDbMLeaderStyle
170
     2
171
     1
172
     0
 90
        2
 40
0.0
 41
0.0
173
     1
 91
-1056964608
340
14
 92
       -2
290
     1
 42
2.0
291
     1
 43
0.36
  3
Standard
 44
4.0
300

342
11
174
     1
178
     6
175
     1
176
     0
 93
-1056964608
 45
4.0
292
     0
297
     0
 46
4.0
 94
-1056964608
 47
1.0
 49
1.0
140
1.0
293
     1
141
0.0
294
     1
177
     0
142
1.0
295
     0
296
     0
143
0.125
1001
ACAD_MLEADERVER
1070
     2
  0
MLINESTYLE
  5
18
102
{ACAD_REACTORS
330
17
102
}
330
17
100
AcDbMlineStyle
  2
STANDARD
 70
     0
  3

 62
   256
 51
90.0
 52
90.0
 71
     2
 49
0.5
 62
   256
  6
BYLAYER
 49
-0.5
 62
   256
  6
BYLAYER
  0
ACDBPLACEHOLDER
  5
F
102
{ACAD_REACTORS
330
E
102
}
330
E
  0
SCALE
  5
48
102
{ACAD_REACTORS
330
47
102
}
330
47
100
AcDbScale
 70
     0
300
1:1
140
1.0
141
1.0
290
     1
  0
SCALE
  5
49
102
{ACAD_REACTORS
330
47
102
}
330
47
100
AcDbScale
 70
     0
300
1:2
140
1.0
141
2.0
290
     0
  0
SCALE
  5
4A
102
{ACAD_REACTORS
330
47
102
}
330
47
100
AcDbScale
 70
     0
300
1:4
140
1.0
141
4.0
290
     0
  0
SCALE
  5
4B
102
{ACAD_REACTORS
330
47
102
}
330
47
100
AcDbScale
 70
     0
300
1:5
140
1.0
141
5.0
290
     0
  0
SCALE
  5
4C
102
{ACAD_REACTORS
330
47
102
}
330
47
100
AcDbScale
 70
     0
300
1:8
140
1.0
141
8.0
290
     0
  0
SCALE
  5
4D
102
{ACAD_REACTORS
330
47
102
}
330
47
100
AcDbScale
 70
     0
300
1:10
140
1.0
141
10.0
290
     0
  0
SCALE
  5
4E
102
{ACAD_REACTORS
330
47
102
}
330
47
100
AcDbScale
 70
     0
300
1:16
140
1.0
141
16.0
290
     0
  0
SCALE
  5
4F
102
{ACAD_REACTORS
330
47
102
}
330
47
100
AcDbScale
 70
     0
300
1:20
140
1.0
141
20.0
290
     0
  0
SCALE
  5
50
102
{ACAD_REACTORS
330
47
102
}
330
47
100
AcDbScale
 70
     0
300
1:30
140
1.0
141
30.0
290
     0
  0
SCALE
  5
51
102
{ACAD_REACTORS
330
47
102
}
330
47
100
AcDbScale
 70
     0
300
1:40
140
1.0
141
40.0
290
     0
  0
SCALE
  5
52
102
{ACAD_REACTORS
330
47
102
}
330
47
100
AcDbScale
 70
     0
300
1:50
140
1.0
141
50.0
290
     0
  0
SCALE
  5
53
102
{ACAD_REACTORS
330
47
102
}
330
47
100
AcDbScale
 70
     0
300
1:100
140
1.0
141
100.0
290
     0
  0
SCALE
  5
54
102
{ACAD_REACTORS
330
47
102
}
330
47
100
AcDbScale
 70
     0
300
2:1
140
2.0
141
1.0
290
     0
  0
SCALE
  5
55
102
{ACAD_REACTORS
330
47
102
}
330
47
100
AcDbScale
 70
     0
300
4:1
140
4.0
141
1.0
290
     0
  0
SCALE
  5
56
102
{ACAD_REACTORS
330
47
102
}
330
47
100
AcDbScale
 70
     0
300
8:1
140
8.0
141
1.0
290
     0
  0
SCALE
  5
57
102
{ACAD_REACTORS
330
47
102
}
330
47
100
AcDbScale
 70
     0
300
10:1
140
10.0
141
1.0
290
     0
  0
SCALE
  5
58
102
{ACAD_REACTORS
330
47
102
}
330
47
100
AcDbScale
 70
     0
300
100:1
140
100.0
141
1.0
290
     0
  0
SCALE
  5
59
102
{ACAD_REACTORS
330
47
102
}
330
47
100
AcDbScale
 70
     0
300
1/128" = 1'-0"
140
0.0078125
141
12.0
290
     0
  0
SCALE
  5
5A
102
{ACAD_REACTORS
330
47
102
}
330
47
100
AcDbScale
 70
     0
300
1/64" = 1'-0"
140
0.015625
141
12.0
290
     0
  0
SCALE
  5
5B
102
{ACAD_REACTORS
330
47
102
}
330
47
100
AcDbScale
 70
     0
300
1/32" = 1'-0"
140
0.03125
141
12.0
290
     0
  0
SCALE
  5
5C
102
{ACAD_REACTORS
330
47
102
}
330
47
100
AcDbScale
 70
     0
300
1/16" = 1'-0"
140
0.0625
141
12.0
290
     0
  0
SCALE
  5
5D
102
{ACAD_REACTORS
330
47
102
}
330
47
100
AcDbScale
 70
     0
300
3/32" = 1'-0"
140
0.09375
141
12.0
290
     0
  0
SCALE
  5
5E
102
{ACAD_REACTORS
330
47
102
}
330
47
100
AcDbScale
 70
     0
300
1/8" = 1'-0"
140
0.125
141
12.0
290
     0
  0
SCALE
  5
5F
102
{ACAD_REACTORS
330
47
102
}
330
47
100
AcDbScale
 70
     0
300
3/16" = 1'-0"
140
0.1875
141
12.0
290
     0
  0
SCALE
  5
60
102
{ACAD_REACTORS
330
47
102
}
330
47
100
AcDbScale
 70
     0
300
1/4" = 1'-0"
140
0.25
141
12.0
290
     0
  0
SCALE
  5
61
102
{ACAD_REACTORS
330
47
102
}
330
47
100
AcDbScale
 70
     0
300
3/8" = 1'-0"
140
0.375
141
12.0
290
     0
  0
SCALE
  5
62
102
{ACAD_REACTORS
330
47
102
}
330
47
100
AcDbScale
 70
     0
300
1/2" = 1'-0"
140
0.5
141
12.0
290
     0
  0
SCALE
  5
63
102
{ACAD_REACTORS
330
47
102
}
330
47
100
AcDbScale
 70
     0
300
3/4" = 1'-0"
140
0.75
141
12.0
290
     0
  0
SCALE
  5
64
102
{ACAD_REACTORS
330
47
102
}
330
47
100
AcDbScale
 70
     0
300
1" = 1'-0"
140
1.0
141
12.0
290
     0
  0
SCALE
  5
65
102
{ACAD_REACTORS
330
47
102
}
330
47
100
AcDbScale
 70
     0
300
1-1/2" = 1'-0"
140
1.5
141
12.0
290
     0
  0
SCALE
  5
66
102
{ACAD_REACTORS
330
47
102
}
330
47
100
AcDbScale
 70
     0
300
3" = 1'-0"
140
3.0
141
12.0
290
     0
  0
SCALE
  5
67
102
{ACAD_REACTORS
330
47
102
}
330
47
100
AcDbScale
 70
     0
300
6" = 1'-0"
140
6.0
141
12.0
290
     0
  0
SCALE
  5
68
102
{ACAD_REACTORS
330
47
102
}
330
47
100
AcDbScale
 70
     0
300
1'-0" = 1'-0"
140
12.0
141
12.0
290
     0
  0
ACDBSECTIONVIEWSTYLE
  5
2A0
102
{ACAD_XDICTIONARY
360
358
102
}
102
{ACAD_REACTORS
330
29F
102
}
330
29F
100
AcDbModelDocViewStyle
 70
     0
  3
Metric50
290
     0
100
AcDbSectionViewStyle
 70
     0
 71
     0
 90
      102
 71
     1
340
11
 40
5.0
340
0
340
0
 40
5.0
300
I, O, Q, S, X, Z
 40
10.0
 90
        0
 40
2.5
 90
        0
 71
     2
340
16
 90
       25
340
16
 90
       50
 40
5.0
 40
2.5
 40
5.0
 71
     3
340
11
 40
5.0
 90
        0
 40
15.0
 90
        1
300
%<\AcVar ViewSectionStartId>%-%<\AcVar ViewSectionEndId>% (%<\AcVar ViewScale \f "%sn">%)
 71
     4
300
ANSI31
 40
1.0
 90
        0
290
     0
290
     0
 90
        6
 40
0.0
 40
1.570796326794896
 40
0.2617993877991494
 40
1.308996938995747
 40
-0.2617993877991494
 40
1.832595714594045
  0
TABLESTYLE
  5
29C
102
{ACAD_XDICTIONARY
360
2C9
102
}
102
{ACAD_REACTORS
330
29B
102
}
330
29B
100
AcDbTableStyle
  3
Standard
 70
     0
 71
     0
 40
1.5
 41
1.5
280
     0
281
     0
  7
Standard
140
4.5
170
     2
 62
     0
 63
     7
283
     0
274
    -2
284
     1
 64
     0
275
    -2
285
     1
 65
     0
276
    -2
286
     1
 66
     0
277
    -2
287
     1
 67
     0
278
    -2
288
     1
 68
     0
279
    -2
289
     1
 69
     0
  7
Standard
140
6.0
170
     5
 62
     0
 63
     7
283
     0
274
    -2
284
     1
 64
     0
275
    -2
285
     1
 65
     0
276
    -2
286
     1
 66
     0
277
    -2
287
     1
 67
     0
278
    -2
288
     1
 68
     0
279
    -2
289
     1
 69
     0
  7
Standard
140
4.5
170
     5
 62
     0
 63
     7
283
     0
274
    -2
284
     1
 64
     0
275
    -2
285
     1
 65
     0
276
    -2
286
     1
 66
     0
277
    -2
287
     1
 67
     0
278
    -2
288
     1
 68
     0
279
    -2
289
     1
 69
     0
  0
VISUALSTYLE
  5
287
102
{ACAD_XDICTIONARY
360
32F
102
}
102
{ACAD_REACTORS
330
281
102
}
330
281
100
AcDbVisualStyle
  2

 70
     4
 71
     0
 72
     2
 73
     0
 90
        0
 40
-0.6
 41
-30.0
 62
     5
 63
     7
 74
     1
 91
        4
 64
     7
 65
   257
 75
     1
175
     1
 42
1.0
 92
        0
 66
   257
 43
1.0
 76
     1
 77
     6
 78
     2
 67
     7
 79
     5
170
     0
171
     0
290
     0
174
     0
 93
        1
 44
0.0
173
     0
291
     0
 45
0.0
1001
ACAD
1000
AcDbSavedByObjectVersion
1070
     0
  0
VISUALSTYLE
  5
286
102
{ACAD_XDICTIONARY
360
32D
102
}
102
{ACAD_REACTORS
330
281
102
}
330
281
100
AcDbVisualStyle
  2

 70
     7
 71
     1
 72
     0
 73
     1
 90
        0
 40
-0.6
 41
-30.0
 62
     5
 63
     7
 74
     0
 91
        4
 64
     7
 65
   257
 75
     1
175
     1
 42
1.0
 92
        8
 66
     7
 43
1.0
 76
     1
 77
     6
 78
     2
 67
     7
 79
     5
170
     0
171
     0
290
     0
174
     0
 93
        1
 44
0.0
173
     0
291
     1
 45
0.0
1001
ACAD
1000
AcDbSavedByObjectVersion
1070
     0
  0
VISUALSTYLE
  5
28D
102
{ACAD_XDICTIONARY
360
33B
102
}
102
{ACAD_REACTORS
330
281
102
}
330
281
100
AcDbVisualStyle
  2

 70
    12
 71
     2
 72
     2
 73
     0
 90
        0
 40
-0.6
 41
-30.0
 62
     5
 63
     7
 74
     1
 91
        4
 64
     7
 65
   257
 75
     1
175
     1
 42
1.0
 92
        8
 66
     7
 43
1.0
 76
     1
 77
     6
 78
     2
 67
     7
 79
     5
170
     0
171
     0
290
     0
174
     0
 93
        1
 44
50.0
173
     0
291
     1
 45
0.0
1001
ACAD
1000
AcDbSavedByObjectVersion
1070
     0
  0
VISUALSTYLE
  5
291
102
{ACAD_XDICTIONARY
360
343
102
}
102
{ACAD_REACTORS
330
281
102
}
330
281
100
AcDbVisualStyle
  2

 70
    16
 71
     2
 72
     2
 73
     3
 90
        0
 40
-0.6
 41
-30.0
 62
     5
 63
     8
 74
     1
 91
        4
 64
     7
 65
   257
 75
     1
175
     1
 42
1.0
 92
        8
 66
     8
 43
1.0
 76
     1
 77
     6
 78
     2
 67
     7
 79
     5
170
     0
171
     0
290
     0
174
     0
 93
        1
 44
0.0
173
     0
291
     1
 45
0.0
1001
ACAD
1000
AcDbSavedByObjectVersion
1070
     0
  0
VISUALSTYLE
  5
28A
102
{ACAD_XDICTIONARY
360
335
102
}
102
{ACAD_REACTORS
330
281
102
}
330
281
100
AcDbVisualStyle
  2

 70
     9
 71
     3
 72
     2
 73
     0
 90
        0
 40
-0.6
 41
-30.0
 62
     5
 63
     7
 74
     2
 91
        2
 64
     7
 65
   257
 75
     1
175
     1
 42
179.0
 92
        8
 66
     7
 43
1.0
 76
     1
 77
     6
 78
     2
 67
     7
 79
     3
170
     0
171
     0
290
     0
174
     0
 93
        1
 44
0.0
173
     0
291
     0
 45
0.0
1001
ACAD
1000
AcDbSavedByObjectVersion
1070
     0
  0
VISUALSTYLE
  5
28C
102
{ACAD_XDICTIONARY
360
339
102
}
102
{ACAD_REACTORS
330
281
102
}
330
281
100
AcDbVisualStyle
  2

 70
    11
 71
     2
 72
     2
 73
     0
 90
        0
 40
-0.6
 41
-30.0
 62
     5
 63
     7
 74
     1
 91
        4
 64
     7
 65
   257
 75
     1
175
     1
 42
1.0
 92
        8
 66
     7
 43
1.0
 76
     1
 77
     6
 78
     2
 67
     7
 79
     5
170
     0
171
     0
290
     0
174
     0
 93
        1
 44
-50.0
173
     0
291
     1
 45
0.0
1001
ACAD
1000
AcDbSavedByObjectVersion
1070
     0
  0
VISUALSTYLE
  5
299
102
{ACAD_XDICTIONARY
360
353
102
}
102
{ACAD_REACTORS
330
281
102
}
330
281
100
AcDbVisualStyle
  2

 70
    22
 71
     2
 72
     2
 73
     0
 90
        0
 40
-0.6
 41
-30.0
 62
     5
 63
     7
 74
     1
 91
        4
 64
     7
 65
   257
 75
     1
175
     1
 42
1.0
 92
        8
 66
     7
 43
1.0
 76
     1
 77
     6
 78
     2
 67
     7
 79
     5
170
     0
171
     0
290
     0
174
     0
 93
        1
 44
0.0
173
     0
291
     1
 45
0.0
1001
ACAD
1000
AcDbSavedByObjectVersion
1070
     0
  0
VISUALSTYLE
  5
290
102
{ACAD_XDICTIONARY
360
341
102
}
102
{ACAD_REACTORS
330
281
102
}
330
281
100
AcDbVisualStyle
  2

 70
    15
 71
     2
 72
     2
 73
     0
 90
        0
 40
-0.6
 41
-30.0
 62
     5
 63
     7
 74
     1
 91
        4
 64
     7
 65
   257
 75
     1
175
     1
 42
1.0
 92
        8
 66
     7
 43
1.0
 76
     1
 77
     6
 78
     2
 67
     7
 79
     5
170
     0
171
     0
290
     0
174
     0
 93
        1
 44
0.0
173
     0
291
     1
 45
0.0
1001
ACAD
1000
AcDbSavedByObjectVersion
1070
     0
  0
VISUALSTYLE
  5
282
102
{ACAD_XDICTIONARY
360
325
102
}
102
{ACAD_REACTORS
330
281
102
}
330
281
100
AcDbVisualStyle
  2

 70
     0
 71
     2
 72
     1
 73
     1
 90
        2
 40
-0.6
 41
30.0
 62
     5
 63
     7
 74
     0
 91
        0
 64
     7
 65
   257
 75
     1
175
     1
 42
1.0
 92
        8
 66
     7
 43
1.0
 76
     1
 77
     6
 78
     2
 67
     7
 79
     5
170
     0
171
     0
290
     0
174
     0
 93
       13
 44
0.0
173
     0
291
     1
 45
0.0
1001
ACAD
1000
AcDbSavedByObjectVersion
1070
     0
  0
VISUALSTYLE
  5
283
102
{ACAD_XDICTIONARY
360
327
102
}
102
{ACAD_REACTORS
330
281
102
}
330
281
100
AcDbVisualStyle
  2

 70
     1
 71
     2
 72
     1
 73
     1
 90
        2
 40
-0.6
 41
30.0
 62
     5
 63
     7
 74
     1
 91
        0
 64
     7
 65
   257
 75
     1
175
     1
 42
1.0
 92
        0
 66
   257
 43
1.0
 76
     1
 77
     6
 78
     2
 67
     7
 79
     5
170
     0
171
     0
290
     0
174
     0
 93
       13
 44
0.0
173
     0
291
     1
 45
0.0
1001
ACAD
1000
AcDbSavedByObjectVersion
1070
     0
  0
VISUALSTYLE
  5
284
102
{ACAD_XDICTIONARY
360
329
102
}
102
{ACAD_REACTORS
330
281
102
}
330
281
100
AcDbVisualStyle
  2

 70
     2
 71
     2
 72
     2
 73
     1
 90
        2
 40
-0.6
 41
30.0
 62
     5
 63
     7
 74
     0
 91
        0
 64
     7
 65
   257
 75
     1
175
     1
 42
1.0
 92
        0
 66
     7
 43
1.0
 76
     1
 77
     6
 78
     2
 67
     7
 79
     5
170
     0
171
     0
290
     0
174
     0
 93
       13
 44
0.0
173
     0
291
     1
 45
0.0
1001
ACAD
1000
AcDbSavedByObjectVersion
1070
     0
  0
VISUALSTYLE
  5
285
102
{ACAD_XDICTIONARY
360
32B
102
}
102
{ACAD_REACTORS
330
281
102
}
330
281
100
AcDbVisualStyle
  2

 70
     3
 71
     2
 72
     2
 73
     1
 90
        2
 40
-0.6
 41
30.0
 62
     5
 63
     7
 74
     1
 91
        0
 64
     7
 65
   257
 75
     1
175
     1
 42
1.0
 92
        0
 66
   257
 43
1.0
 76
     1
 77
     6
 78
     2
 67
     7
 79
     5
170
     0
171
     0
290
     0
174
     0
 93
       13
 44
0.0
173
     0
291
     1
 45
0.0
1001
ACAD
1000
AcDbSavedByObjectVersion
1070
     0
  0
VISUALSTYLE
  5
289
102
{ACAD_XDICTIONARY
360
333
102
}
102
{ACAD_REACTORS
330
281
102
}
330
281
100
AcDbVisualStyle
  2

 70
     6
 71
     1
 72
     2
 73
     2
 90
        0
 40
-0.6
 41
-30.0
 62
     5
 63
     7
 74
     2
 91
        2
 64
     7
 65
   257
 75
     2
175
     1
 42
40.0
 92
        0
 66
   257
 43
1.0
 76
     1
 77
     6
 78
     2
 67
     7
 79
     3
170
     0
171
     0
290
     0
174
     0
 93
        1
 44
0.0
173
     0
291
     0
 45
0.0
1001
ACAD
1000
AcDbSavedByObjectVersion
1070
     0
  0
VISUALSTYLE
  5
297
102
{ACAD_XDICTIONARY
360
34F
102
}
102
{ACAD_REACTORS
330
281
102
}
330
281
100
AcDbVisualStyle
  2

 70
    20
 71
     2
 72
     2
 73
     0
 90
        0
 40
-0.6
 41
-30.0
 62
     5
 63
     7
 74
     1
 91
        4
 64
     7
 65
   257
 75
     1
175
     1
 42
1.0
 92
       10
 66
     7
 43
1.0
 76
     1
 77
     6
 78
     2
 67
     7
 79
     5
170
     0
171
     0
290
     0
174
     0
 93
        1
 44
0.0
173
     0
291
     1
 45
0.0
1001
ACAD
1000
AcDbSavedByObjectVersion
1070
     0
  0
VISUALSTYLE
  5
28F
102
{ACAD_XDICTIONARY
360
33F
102
}
102
{ACAD_REACTORS
330
281
102
}
330
281
100
AcDbVisualStyle
  2

 70
    14
 71
     2
 72
     2
 73
     0
 90
        0
 40
-0.6
 41
-30.0
 62
     5
 63
     7
 74
     1
 91
        4
 64
     7
 65
   257
 75
     7
175
     7
 42
1.0
 92
        8
 66
     7
 43
1.0
 76
     1
 77
     6
 78
     2
 67
     7
 79
     5
170
     0
171
     0
290
     0
174
     0
 93
        1
 44
0.0
173
     0
291
     1
 45
0.0
1001
ACAD
1000
AcDbSavedByObjectVersion
1070
     0
  0
VISUALSTYLE
  5
298
102
{ACAD_XDICTIONARY
360
351
102
}
102
{ACAD_REACTORS
330
281
102
}
330
281
100
AcDbVisualStyle
  2

 70
    21
 71
     2
 72
     2
 73
     0
 90
        0
 40
-0.6
 41
-30.0
 62
     5
 63
     7
 74
     1
 91
        4
 64
     7
 65
   257
 75
     1
175
     1
 42
1.0
 92
        9
 66
     7
 43
1.0
 76
     1
 77
     6
 78
     2
 67
     7
 79
     5
170
     0
171
     0
290
     0
174
     0
 93
        1
 44
0.0
173
     0
291
     1
 45
0.0
1001
ACAD
1000
AcDbSavedByObjectVersion
1070
     0
  0
VISUALSTYLE
  5
28B
102
{ACAD_XDICTIONARY
360
337
102
}
102
{ACAD_REACTORS
330
281
102
}
330
281
100
AcDbVisualStyle
  2

 70
     8
 71
     2
 72
     3
 73
     0
 90
        2
 40
-0.6
 41
30.0
 62
     5
 63
     7
 74
     0
 91
        0
 64
     7
 65
   257
 75
     1
175
     1
 42
1.0
 92
        8
 66
   257
 43
1.0
 76
     1
 77
     6
 78
     2
 67
     7
 79
     3
170
     0
171
     0
290
     0
174
     0
 93
       13
 44
0.0
173
     0
291
     0
 45
0.0
1001
ACAD
1000
AcDbSavedByObjectVersion
1070
     0
  0
VISUALSTYLE
  5
296
102
{ACAD_XDICTIONARY
360
34D
102
}
102
{ACAD_REACTORS
330
281
102
}
330
281
100
AcDbVisualStyle
  2

 70
    27
 71
     2
 72
     2
 73
     1
 90
        2
 40
-0.6
 41
30.0
 62
     5
 63
     7
 74
     0
 91
        4
 64
     7
 65
   257
 75
     1
175
     1
 42
1.0
 92
        8
 66
   257
 43
1.0
 76
     1
 77
     6
 78
     2
 67
     8
 79
     3
170
     0
171
     0
290
     0
174
     0
 93
        5
 44
0.0
173
     0
291
     0
 45
0.0
1001
ACAD
1000
AcDbSavedByObjectVersion
1070
     0
  0
VISUALSTYLE
  5
295
102
{ACAD_XDICTIONARY
360
34B
102
}
102
{ACAD_REACTORS
330
281
102
}
330
281
100
AcDbVisualStyle
  2

 70
    26
 71
     2
 72
     2
 73
     1
 90
        2
 40
-0.6
 41
30.0
 62
     5
 63
     7
 74
     1
 91
        2
 64
     7
 65
   257
 75
     2
175
     1
 42
1.0
 92
        8
 66
   257
 43
1.0
 76
     1
 77
     6
 78
     2
 67
     7
 79
     3
170
     0
171
     0
290
     0
174
     0
 93
        5
 44
0.0
173
     0
291
     0
 45
0.0
1001
ACAD
1000
AcDbSavedByObjectVersion
1070
     0
  0
VISUALSTYLE
  5
292
102
{ACAD_XDICTIONARY
360
345
102
}
102
{ACAD_REACTORS
330
281
102
}
330
281
100
AcDbVisualStyle
  2

 70
    23
 71
     2
 72
     2
 73
     3
 90
        0
 40
-0.6
 41
-30.0
 62
     5
 63
     7
 74
     2
 91
        2
 64
     7
 65
     7
 75
     1
175
     1
 42
40.0
 92
        8
 66
     7
 43
1.0
 76
     1
 77
     6
 78
     2
 67
     7
 79
     3
170
     0
171
     0
290
     0
174
     0
 93
        1
 44
0.0
173
     0
291
     0
 45
0.0
1001
ACAD
1000
AcDbSavedByObjectVersion
1070
     0
  0
VISUALSTYLE
  5
293
102
{ACAD_XDICTIONARY
360
347
102
}
102
{ACAD_REACTORS
330
281
102
}
330
281
100
AcDbVisualStyle
  2

 70
    24
 71
     1
 72
     2
 73
     2
 90
        0
 40
-0.6
 41
-30.0
 62
     5
 63
     7
 74
     2
 91
        2
 64
     7
 65
     7
 75
     1
175
     1
 42
40.0
 92
       11
 66
     7
 43
1.0
 76
     1
 77
     6
 78
     2
 67
     7
 79
     6
170
     0
171
     0
290
     0
174
     0
 93
        1
 44
0.0
173
     0
291
     0
 45
0.0
1001
ACAD
1000
AcDbSavedByObjectVersion
1070
     0
  0
VISUALSTYLE
  5
28E
102
{ACAD_XDICTIONARY
360
33D
102
}
102
{ACAD_REACTORS
330
281
102
}
330
281
100
AcDbVisualStyle
  2

 70
    13
 71
     2
 72
     2
 73
     0
 90
        0
 40
-0.6
 41
-30.0
 62
     5
 63
     7
 74
     1
 91
        4
 64
     7
 65
   257
 75
     1
175
     1
 42
1.0
 92
       12
 66
     7
 43
1.0
 76
     1
 77
     6
 78
     2
 67
     7
 79
     5
170
     0
171
     0
290
     0
174
     0
 93
        1
 44
0.0
173
     0
291
     1
 45
0.0
1001
ACAD
1000
AcDbSavedByObjectVersion
1070
     0
  0
VISUALSTYLE
  5
288
102
{ACAD_XDICTIONARY
360
331
102
}
102
{ACAD_REACTORS
330
281
102
}
330
281
100
AcDbVisualStyle
  2

 70
     5
 71
     0
 72
     2
 73
     0
 90
        0
 40
-0.6
 41
-30.0
 62
     5
 63
     7
 74
     1
 91
        4
 64
     7
 65
   257
 75
     1
175
     1
 42
1.0
 92
        0
 66
   257
 43
1.0
 76
     1
 77
     6
 78
     2
 67
     7
 79
     3
170
     0
171
     0
290
     0
174
     0
 93
        1
 44
0.0
173
     0
291
     0
 45
0.0
1001
ACAD
1000
AcDbSavedByObjectVersion
1070
     0
  0
VISUALSTYLE
  5
294
102
{ACAD_XDICTIONARY
360
349
102
}
102
{ACAD_REACTORS
330
281
102
}
330
281
100
AcDbVisualStyle
  2

 70
    25
 71
     2
 72
     2
 73
     1
 90
        1
 40
0.5
 41
-30.0
 62
     5
 63
     7
 74
     1
 91
        0
 64
     7
 65
   257
 75
     1
175
     1
 42
1.0
 92
        8
 66
     7
 43
1.0
 76
     1
 77
     6
 78
     2
 67
     7
 79
     3
170
     0
171
     0
290
     0
174
     0
 93
       13
 44
0.0
173
     0
291
     0
 45
0.0
1001
ACAD
1000
AcDbSavedByObjectVersion
1070
     0
  0
DICTIONARYVAR
  5
2B7
102
{ACAD_REACTORS
330
2B1
102
}
330
2B1
100
DictionaryVariables
280
     0
  1
1:1
  0
DICTIONARYVAR
  5
2B3
102
{ACAD_REACTORS
330
2B1
102
}
330
2B1
100
DictionaryVariables
280
     0
  1
STANDARD
  0
DICTIONARYVAR
  5
2B2
102
{ACAD_REACTORS
330
2B1
102
}
330
2B1
100
DictionaryVariables
280
     0
  1
STANDARD
  0
DICTIONARYVAR
  5
2B4
102
{ACAD_REACTORS
330
2B1
102
}
330
2B1
100
DictionaryVariables
280
     0
  1
Metric50
  0
DICTIONARYVAR
  5
2B5
102
{ACAD_REACTORS
330
2B1
102
}
330
2B1
100
DictionaryVariables
280
     0
  1
Metric50
  0
DICTIONARYVAR
  5
2C7
102
{ACAD_REACTORS
330
2B1
102
}
330
2B1
100
DictionaryVariables
280
     0
  1
1
  0
DICTIONARYVAR
  5
2C6
102
{ACAD_REACTORS
330
2B1
102
}
330
2B1
100
DictionaryVariables
280
     0
  1
0
  0
DICTIONARYVAR
  5
2B9
102
{ACAD_REACTORS
330
2B1
102
}
330
2B1
100
DictionaryVariables
280
     0
  1
1
  0
DICTIONARYVAR
  5
2BA
102
{ACAD_REACTORS
330
2B1
102
}
330
2B1
100
DictionaryVariables
280
     0
  1
15
  0
DICTIONARYVAR
  5
2B8
102
{ACAD_REACTORS
330
2B1
102
}
330
2B1
100
DictionaryVariables
280
     0
  1
0
  0
DICTIONARYVAR
  5
2B6
102
{ACAD_REACTORS
330
2B1
102
}
330
2B1
100
DictionaryVariables
280
     0
  1
0
  0
DICTIONARYVAR
  5
2C5
102
{ACAD_REACTORS
330
2B1
102
}
330
2B1
100
DictionaryVariables
280
     0
  1
127
  0
DICTIONARYVAR
  5
31B
102
{ACAD_REACTORS
330
2B1
102
}
330
2B1
100
DictionaryVariables
280
     0
  1
2
  0
DICTIONARY
  5
35A
330
2A2
100
AcDbDictionary
280
     1
281
     1
  3
ACAD_XREC_ROUNDTRIP
360
35B
  0
DICTIONARY
  5
31F
330
1E
100
AcDbDictionary
280
     1
281
     1
  3
ACAD_XREC_ROUNDTRIP
360
320
  0
DICTIONARY
  5
323
330
26
100
AcDbDictionary
280
     1
281
     1
  3
ACAD_XREC_ROUNDTRIP
360
324
  0
DICTIONARY
  5
321
330
22
100
AcDbDictionary
280
     1
281
     1
  3
ACAD_XREC_ROUNDTRIP
360
322
  0
DICTIONARY
  5
272
330
271
100
AcDbDictionary
280
     1
281
     1
  3
ACAD_XREC_ROUNDTRIP
360
2D4
  3
BUMPTILE
360
274
  3
DIFFUSETILE
360
273
  3
OPACITYTILE
360
277
  3
REFLECTIONTILE
360
276
  3
REFRACTIONTILE
360
278
  3
SPECULARTILE
360
275
  0
DICTIONARY
  5
26A
330
269
100
AcDbDictionary
280
     1
281
     1
  3
ACAD_XREC_ROUNDTRIP
360
2D3
  3
BUMPTILE
360
26C
  3
DIFFUSETILE
360
26B
  3
OPACITYTILE
360
26F
  3
REFLECTIONTILE
360
26E
  3
REFRACTIONTILE
360
270
  3
SPECULARTILE
360
26D
  0
DICTIONARY
  5
27A
330
279
100
AcDbDictionary
280
     1
281
     1
  3
ACAD_XREC_ROUNDTRIP
360
2D5
  3
BUMPTILE
360
27C
  3
DIFFUSETILE
360
27B
  3
OPACITYTILE
360
27F
  3
REFLECTIONTILE
360
27E
  3
REFRACTIONTILE
360
280
  3
SPECULARTILE
360
27D
  0
DICTIONARY
  5
356
330
29E
100
AcDbDictionary
280
     1
281
     1
  3
ACAD_XREC_ROUNDTRIP
360
357
  0
DICTIONARY
  5
358
330
2A0
100
AcDbDictionary
280
     1
281
     1
  3
ACAD_XREC_ROUNDTRIP
360
359
  0
DICTIONARY
  5
2C9
330
29C
100
AcDbDictionary
280
     1
281
     1
  3
ACAD_ROUNDTRIP_2008_TABLESTYLE_CELLSTYLEMAP
360
31C
  3
ACAD_XREC_ROUNDTRIP
360
355
  0
DICTIONARY
  5
32F
330
287
100
AcDbDictionary
280
     1
281
     1
  3
ACAD_XREC_ROUNDTRIP
360
330
  0
DICTIONARY
  5
32D
330
286
100
AcDbDictionary
280
     1
281
     1
  3
ACAD_XREC_ROUNDTRIP
360
32E
  0
DICTIONARY
  5
33B
330
28D
100
AcDbDictionary
280
     1
281
     1
  3
ACAD_XREC_ROUNDTRIP
360
33C
  0
DICTIONARY
  5
343
330
291
100
AcDbDictionary
280
     1
281
     1
  3
ACAD_XREC_ROUNDTRIP
360
344
  0
DICTIONARY
  5
335
330
28A
100
AcDbDictionary
280
     1
281
     1
  3
ACAD_XREC_ROUNDTRIP
360
336
  0
DICTIONARY
  5
339
330
28C
100
AcDbDictionary
280
     1
281
     1
  3
ACAD_XREC_ROUNDTRIP
360
33A
  0
DICTIONARY
  5
353
330
299
100
AcDbDictionary
280
     1
281
     1
  3
ACAD_XREC_ROUNDTRIP
360
354
  0
DICTIONARY
  5
341
330
290
100
AcDbDictionary
280
     1
281
     1
  3
ACAD_XREC_ROUNDTRIP
360
342
  0
DICTIONARY
  5
325
330
282
100
AcDbDictionary
280
     1
281
     1
  3
ACAD_XREC_ROUNDTRIP
360
326
  0
DICTIONARY
  5
327
330
283
100
AcDbDictionary
280
     1
281
     1
  3
ACAD_XREC_ROUNDTRIP
360
328
  0
DICTIONARY
  5
329
330
284
100
AcDbDictionary
280
     1
281
     1
  3
ACAD_XREC_ROUNDTRIP
360
32A
  0
DICTIONARY
  5
32B
330
285
100
AcDbDictionary
280
     1
281
     1
  3
ACAD_XREC_ROUNDTRIP
360
32C
  0
DICTIONARY
  5
333
330
289
100
AcDbDictionary
280
     1
281
     1
  3
ACAD_XREC_ROUNDTRIP
360
334
  0
DICTIONARY
  5
34F
330
297
100
AcDbDictionary
280
     1
281
     1
  3
ACAD_XREC_ROUNDTRIP
360
350
  0
DICTIONARY
  5
33F
330
28F
100
AcDbDictionary
280
     1
281
     1
  3
ACAD_XREC_ROUNDTRIP
360
340
  0
DICTIONARY
  5
351
330
298
100
AcDbDictionary
280
     1
281
     1
  3
ACAD_XREC_ROUNDTRIP
360
352
  0
DICTIONARY
  5
337
330
28B
100
AcDbDictionary
280
     1
281
     1
  3
ACAD_XREC_ROUNDTRIP
360
338
  0
DICTIONARY
  5
34D
330
296
100
AcDbDictionary
280
     1
281
     1
  3
ACAD_XREC_ROUNDTRIP
360
34E
  0
DICTIONARY
  5
34B
330
295
100
AcDbDictionary
280
     1
281
     1
  3
ACAD_XREC_ROUNDTRIP
360
34C
  0
DICTIONARY
  5
345
330
292
100
AcDbDictionary
280
     1
281
     1
  3
ACAD_XREC_ROUNDTRIP
360
346
  0
DICTIONARY
  5
347
330
293
100
AcDbDictionary
280
     1
281
     1
  3
ACAD_XREC_ROUNDTRIP
360
348
  0
DICTIONARY
  5
33D
330
28E
100
AcDbDictionary
280
     1
281
     1
  3
ACAD_XREC_ROUNDTRIP
360
33E
  0
DICTIONARY
  5
331
330
288
100
AcDbDictionary
280
     1
281
     1
  3
ACAD_XREC_ROUNDTRIP
360
332
  0
DICTIONARY
  5
349
330
294
100
AcDbDictionary
280
     1
281
     1
  3
ACAD_XREC_ROUNDTRIP
360
34A
  0
XRECORD
  5
35B
102
{ACAD_REACTORS
330
35A
102
}
330
35A
100
AcDbXrecord
280
     1
102
DISPLAYNAME
  1
Metric50
102
FLAGS
 90
        0
  0
XRECORD
  5
320
102
{ACAD_REACTORS
330
31F
102
}
330
31F
100
AcDbXrecord
280
     1
102
SHADEPLOT
 70
     0
102
SHADEPLOTRESLEVEL
 70
     2
102
SHADEPLOTCUSTOMDPI
 70
   300
  0
XRECORD
  5
324
102
{ACAD_REACTORS
330
323
102
}
330
323
100
AcDbXrecord
280
     1
102
SHADEPLOT
 70
     0
102
SHADEPLOTRESLEVEL
 70
     2
102
SHADEPLOTCUSTOMDPI
 70
   300
  0
XRECORD
  5
322
102
{ACAD_REACTORS
330
321
102
}
330
321
100
AcDbXrecord
280
     1
102
SHADEPLOT
 70
     0
102
SHADEPLOTRESLEVEL
 70
     2
102
SHADEPLOTCUSTOMDPI
 70
   300
  0
XRECORD
  5
2D4
102
{ACAD_REACTORS
330
272
102
}
330
272
100
AcDbXrecord
280
     1
102
MATERIAL
148
0.0
149
0.0
149
0.0
 93
        0
 94
      127
282
     0
 72
     0
 77
     0
171
     0
175
     0
179
     0
273
     0
  0
XRECORD
  5
274
102
{ACAD_REACTORS
330
272
102
}
330
272
100
AcDbXrecord
280
     1
270
     1
271
     1
  0
XRECORD
  5
273
102
{ACAD_REACTORS
330
272
102
}
330
272
100
AcDbXrecord
280
     1
270
     1
271
     1
  0
XRECORD
  5
277
102
{ACAD_REACTORS
330
272
102
}
330
272
100
AcDbXrecord
280
     1
270
     1
271
     1
  0
XRECORD
  5
276
102
{ACAD_REACTORS
330
272
102
}
330
272
100
AcDbXrecord
280
     1
270
     1
271
     1
  0
XRECORD
  5
278
102
{ACAD_REACTORS
330
272
102
}
330
272
100
AcDbXrecord
280
     1
270
     1
271
     1
  0
XRECORD
  5
275
102
{ACAD_REACTORS
330
272
102
}
330
272
100
AcDbXrecord
280
     1
270
     1
271
     1
  0
XRECORD
  5
2D3
102
{ACAD_REACTORS
330
26A
102
}
330
26A
100
AcDbXrecord
280
     1
102
MATERIAL
148
0.0
149
0.0
149
0.0
 93
        0
 94
      127
282
     0
 72
     0
 77
     0
171
     0
175
     0
179
     0
273
     0
  0
XRECORD
  5
26C
102
{ACAD_REACTORS
330
26A
102
}
330
26A
100
AcDbXrecord
280
     1
270
     1
271
     1
  0
XRECORD
  5
26B
102
{ACAD_REACTORS
330
26A
102
}
330
26A
100
AcDbXrecord
280
     1
270
     1
271
     1
  0
XRECORD
  5
26F
102
{ACAD_REACTORS
330
26A
102
}
330
26A
100
AcDbXrecord
280
     1
270
     1
271
     1
  0
XRECORD
  5
26E
102
{ACAD_REACTORS
330
26A
102
}
330
26A
100
AcDbXrecord
280
     1
270
     1
271
     1
  0
XRECORD
  5
270
102
{ACAD_REACTORS
330
26A
102
}
330
26A
100
AcDbXrecord
280
     1
270
     1
271
     1
  0
XRECORD
  5
26D
102
{ACAD_REACTORS
330
26A
102
}
330
26A
100
AcDbXrecord
280
     1
270
     1
271
     1
  0
XRECORD
  5
2D5
102
{ACAD_REACTORS
330
27A
102
}
330
27A
100
AcDbXrecord
280
     1
102
MATERIAL
148
0.0
149
0.0
149
0.0
 93
        0
 94
      127
282
     0
 72
     0
 77
     0
171
     0
175
     0
179
     0
273
     0
  0
XRECORD
  5
27C
102
{ACAD_REACTORS
330
27A
102
}
330
27A
100
AcDbXrecord
280
     1
270
     1
271
     1
  0
XRECORD
  5
27B
102
{ACAD_REACTORS
330
27A
102
}
330
27A
100
AcDbXrecord
280
     1
270
     1
271
     1
  0
XRECORD
  5
27F
102
{ACAD_REACTORS
330
27A
102
}
330
27A
100
AcDbXrecord
280
     1
270
     1
271
     1
  0
XRECORD
  5
27E
102
{ACAD_REACTORS
330
27A
102
}
330
27A
100
AcDbXrecord
280
     1
270
     1
271
     1
  0
XRECORD
  5
280
102
{ACAD_REACTORS
330
27A
102
}
330
27A
100
AcDbXrecord
280
     1
270
     1
271
     1
  0
XRECORD
  5
27D
102
{ACAD_REACTORS
330
27A
102
}
330
27A
100
AcDbXrecord
280
     1
270
     1
271
     1
  0
XRECORD
  5
357
102
{ACAD_REACTORS
330
356
102
}
330
356
100
AcDbXrecord
280
     1
102
ACAD_ROUNDTRIP_2012_MLEADER_STYLE
298
     1
  0
XRECORD
  5
359
102
{ACAD_REACTORS
330
358
102
}
330
358
100
AcDbXrecord
280
     1
102
DISPLAYNAME
  1
Metric50
102
FLAGS
 90
        0
  0
CELLSTYLEMAP
  5
31C
102
{ACAD_REACTORS
330
2C9
102
}
330
2C9
100
AcDbCellStyleMap
 90
        3
300
CELLSTYLE
  1
TABLEFORMAT_BEGIN
 90
        5
170
     1
 91
        0
 92
    32768
 62
   257
 93
        1
300
CONTENTFORMAT
  1
CONTENTFORMAT_BEGIN
 90
        0
 91
        0
 92
      512
 93
        0
300

 40
0.0
140
1.0
 94
        5
 62
     0
340
11
144
6.0
309
CONTENTFORMAT_END
171
     1
301
MARGIN
  1
CELLMARGIN_BEGIN
 40
1.5
 40
1.5
 40
1.5
 40
1.5
 40
0.18
 40
0.18
309
CELLMARGIN_END
 94
        6
 95
        1
302
GRIDFORMAT
  1
GRIDFORMAT_BEGIN
 90
        0
 91
        1
 62
     0
 92
       -2
340
0
 93
        0
 40
1.125
309
GRIDFORMAT_END
 95
        2
302
GRIDFORMAT
  1
GRIDFORMAT_BEGIN
 90
        0
 91
        1
 62
     0
 92
       -2
340
0
 93
        0
 40
1.125
309
GRIDFORMAT_END
 95
        4
302
GRIDFORMAT
  1
GRIDFORMAT_BEGIN
 90
        0
 91
        1
 62
     0
 92
       -2
340
0
 93
        0
 40
1.125
309
GRIDFORMAT_END
 95
        8
302
GRIDFORMAT
  1
GRIDFORMAT_BEGIN
 90
        0
 91
        1
 62
     0
 92
       -2
340
0
 93
        0
 40
1.125
309
GRIDFORMAT_END
 95
       16
302
GRIDFORMAT
  1
GRIDFORMAT_BEGIN
 90
        0
 91
        1
 62
     0
 92
       -2
340
0
 93
        0
 40
1.125
309
GRIDFORMAT_END
 95
       32
302
GRIDFORMAT
  1
GRIDFORMAT_BEGIN
 90
        0
 91
        1
 62
     0
 92
       -2
340
0
 93
        0
 40
1.125
309
GRIDFORMAT_END
309
TABLEFORMAT_END
  1
CELLSTYLE_BEGIN
 90
        1
 91
        1
300
_TITLE
309
CELLSTYLE_END
300
CELLSTYLE
  1
TABLEFORMAT_BEGIN
 90
        5
170
     1
 91
        0
 92
        0
 62
   257
 93
        1
300
CONTENTFORMAT
  1
CONTENTFORMAT_BEGIN
 90
        0
 91
        0
 92
      512
 93
        0
300

 40
0.0
140
1.0
 94
        5
 62
     0
340
11
144
4.5
309
CONTENTFORMAT_END
171
     1
301
MARGIN
  1
CELLMARGIN_BEGIN
 40
1.5
 40
1.5
 40
1.5
 40
1.5
 40
0.18
 40
0.18
309
CELLMARGIN_END
 94
        6
 95
        1
302
GRIDFORMAT
  1
GRIDFORMAT_BEGIN
 90
        0
 91
        1
 62
     0
 92
       -2
340
0
 93
        0
 40
1.125
309
GRIDFORMAT_END
 95
        2
302
GRIDFORMAT
  1
GRIDFORMAT_BEGIN
 90
        0
 91
        1
 62
     0
 92
       -2
340
0
 93
        0
 40
1.125
309
GRIDFORMAT_END
 95
        4
302
GRIDFORMAT
  1
GRIDFORMAT_BEGIN
 90
        0
 91
        1
 62
     0
 92
       -2
340
0
 93
        0
 40
1.125
309
GRIDFORMAT_END
 95
        8
302
GRIDFORMAT
  1
GRIDFORMAT_BEGIN
 90
        0
 91
        1
 62
     0
 92
       -2
340
0
 93
        0
 40
1.125
309
GRIDFORMAT_END
 95
       16
302
GRIDFORMAT
  1
GRIDFORMAT_BEGIN
 90
        0
 91
        1
 62
     0
 92
       -2
340
0
 93
        0
 40
1.125
309
GRIDFORMAT_END
 95
       32
302
GRIDFORMAT
  1
GRIDFORMAT_BEGIN
 90
        0
 91
        1
 62
     0
 92
       -2
340
0
 93
        0
 40
1.125
309
GRIDFORMAT_END
309
TABLEFORMAT_END
  1
CELLSTYLE_BEGIN
 90
        2
 91
        1
300
_HEADER
309
CELLSTYLE_END
300
CELLSTYLE
  1
TABLEFORMAT_BEGIN
 90
        5
170
     1
 91
        0
 92
        0
 62
   257
 93
        1
300
CONTENTFORMAT
  1
CONTENTFORMAT_BEGIN
 90
        0
 91
        0
 92
      512
 93
        0
300

 40
0.0
140
1.0
 94
        2
 62
     0
340
11
144
4.5
309
CONTENTFORMAT_END
171
     1
301
MARGIN
  1
CELLMARGIN_BEGIN
 40
1.5
 40
1.5
 40
1.5
 40
1.5
 40
0.18
 40
0.18
309
CELLMARGIN_END
 94
        6
 95
        1
302
GRIDFORMAT
  1
GRIDFORMAT_BEGIN
 90
        0
 91
        1
 62
     0
 92
       -2
340
0
 93
        0
 40
1.125
309
GRIDFORMAT_END
 95
        2
302
GRIDFORMAT
  1
GRIDFORMAT_BEGIN
 90
        0
 91
        1
 62
     0
 92
       -2
340
0
 93
        0
 40
1.125
309
GRIDFORMAT_END
 95
        4
302
GRIDFORMAT
  1
GRIDFORMAT_BEGIN
 90
        0
 91
        1
 62
     0
 92
       -2
340
0
 93
        0
 40
1.125
309
GRIDFORMAT_END
 95
        8
302
GRIDFORMAT
  1
GRIDFORMAT_BEGIN
 90
        0
 91
        1
 62
     0
 92
       -2
340
0
 93
        0
 40
1.125
309
GRIDFORMAT_END
 95
       16
302
GRIDFORMAT
  1
GRIDFORMAT_BEGIN
 90
        0
 91
        1
 62
     0
 92
       -2
340
0
 93
        0
 40
1.125
309
GRIDFORMAT_END
 95
       32
302
GRIDFORMAT
  1
GRIDFORMAT_BEGIN
 90
        0
 91
        1
 62
     0
 92
       -2
340
0
 93
        0
 40
1.125
309
GRIDFORMAT_END
309
TABLEFORMAT_END
  1
CELLSTYLE_BEGIN
 90
        3
 91
        2
300
_DATA
309
CELLSTYLE_END
  0
XRECORD
  5
355
102
{ACAD_REACTORS
330
2C9
102
}
330
2C9
100
AcDbXrecord
280
     1
102
ACAD_ROUNDTRIP_PRE2007_TABLESTYLE
 90
      512
 91
        0
  1

 92
      512
 93
        0
  2

 94
      512
 95
        0
  3

  0
XRECORD
  5
330
102
{ACAD_REACTORS
330
32F
102
}
330
32F
100
AcDbXrecord
280
     1
102
RTVSPost2010Prop28
280
     1
102
RTVSPost2010PropOp28
 70
     1
102
RTVSPost2010Prop29
280
     1
102
RTVSPost2010PropOp29
 70
     1
102
RTVSPost2010Prop30
280
     0
102
RTVSPost2010PropOp30
 70
     1
102
RTVSPost2010Prop31
280
     0
102
RTVSPost2010PropOp31
 70
     1
102
RTVSPost2010Prop32
280
     0
102
RTVSPost2010PropOp32
 70
     1
102
RTVSPost2010Prop33
280
     0
102
RTVSPost2010PropOp33
 70
     1
102
RTVSPost2010Prop34
280
     0
102
RTVSPost2010PropOp34
 70
     1
102
RTVSPost2010Prop35
280
     0
102
RTVSPost2010PropOp35
 70
     1
102
RTVSPost2010Prop36
280
     0
102
RTVSPost2010PropOp36
 70
     1
102
RTVSPost2010Prop37
 90
       50
102
RTVSPost2010PropOp37
 70
     1
102
RTVSPost2010Prop38
140
0.0
102
RTVSPost2010PropOp38
 70
     1
102
RTVSPost2010Prop39
140
1.0
102
RTVSPost2010PropOp39
 70
     1
102
RTVSPost2010Prop40
 90
        0
102
RTVSPost2010PropOp40
 70
     1
102
RTVSPost2010Prop41ColorIndex
 90
       18
102
RTVSPost2010Prop41ColorRGB
 90
        0
102
RTVSPost2010PropOp41
 70
     1
102
RTVSPost2010Prop42
 90
       50
102
RTVSPost2010PropOp42
 70
     1
102
RTVSPost2010Prop43
 90
        3
102
RTVSPost2010PropOp43
 70
     1
102
RTVSPost2010Prop44ColorIndex
 90
        5
102
RTVSPost2010Prop44ColorRGB
 90
      255
102
RTVSPost2010PropOp44
 70
     1
102
RTVSPost2010Prop45
280
     0
102
RTVSPost2010PropOp45
 70
     1
102
RTVSPost2010Prop46
 90
       50
102
RTVSPost2010PropOp46
 70
     1
102
RTVSPost2010Prop47
 90
       50
102
RTVSPost2010PropOp47
 70
     1
102
RTVSPost2010Prop48
 90
       50
102
RTVSPost2010PropOp48
 70
     1
102
RTVSPost2010Prop49
280
     0
102
RTVSPost2010PropOp49
 70
     1
102
RTVSPost2010Prop50
 90
       50
102
RTVSPost2010PropOp50
 70
     1
102
RTVSPost2010Prop51ColorIndex
 90
      256
102
RTVSPost2010Prop51ColorRGB
 90
-16777216
102
RTVSPost2010PropOp51
 70
     0
102
RTVSPost2010Prop52
140
1.0
102
RTVSPost2010PropOp52
 70
     0
102
RTVSPost2010Prop53
 90
        2
102
RTVSPost2010PropOp53
 70
     1
102
RTVSPost2010Prop54
  1
strokes_ogs.tif
102
RTVSPost2010PropOp54
 70
     1
102
RTVSPost2010Prop55
280
     0
102
RTVSPost2010PropOp55
 70
     1
102
RTVSPost2010Prop56
140
1.0
102
RTVSPost2010PropOp56
 70
     1
102
RTVSPost2010Prop57
140
1.0
102
RTVSPost2010PropOp57
 70
     1
102
RTVSPropertyOp0
 70
     1
102
RTVSPropertyOp1
 70
     1
102
RTVSPropertyOp2
 70
     1
102
RTVSPropertyOp3
 70
     1
102
RTVSPropertyOp4
 70
     1
102
RTVSPropertyOp5
 70
     1
102
RTVSPropertyOp6
 70
     1
102
RTVSPropertyOp7
 70
     1
102
RTVSPropertyOp8
 70
     1
102
RTVSPropertyOp9
 70
     1
102
RTVSPropertyOp10
 70
     1
102
RTVSPropertyOp11
 70
     1
102
RTVSPropertyOp12
 70
     1
102
RTVSPropertyOp13
 70
     1
102
RTVSPropertyOp14
 70
     1
102
RTVSPropertyOp15
 70
     1
102
RTVSPropertyOp16
 70
     1
102
RTVSPropertyOp17
 70
     1
102
RTVSPropertyOp18
 70
     1
102
RTVSPropertyOp19
 70
     1
102
RTVSPropertyOp20
 70
     1
102
RTVSPropertyOp21
 70
     1
102
RTVSPropertyOp22
 70
     1
102
RTVSPropertyOp23
 70
     1
102
RTVSPropertyOp24
 70
     1
102
RTVSPropertyOp25
 70
     1
102
RTVSPropertyOp26
 70
     1
102
RTVSPropertyOp27
 70
     1
102
RTVSPropertyOp28
 70
     1
102
RTVSPropertyOp29
 70
     1
102
RTVSPropertyOp30
 70
     1
102
RTVSPropertyOp31
 70
     1
102
RTVSPropertyOp32
 70
     1
102
RTVSPropertyOp33
 70
     1
102
RTVSPropertyOp34
 70
     1
102
RTVSPropertyOp35
 70
     1
102
RTVSPropertyOp36
 70
     1
102
RTVSPropertyOp37
 70
     1
102
RTVSPropertyOp38
 70
     1
102
RTVSPropertyOp39
 70
     1
102
RTVSPropertyOp40
 70
     1
102
RTVSPropertyOp41
 70
     1
102
RTVSPropertyOp42
 70
     1
102
RTVSPropertyOp43
 70
     1
102
RTVSPropertyOp44
 70
     1
102
RTVSPropertyOp45
 70
     1
102
RTVSPropertyOp46
 70
     1
102
RTVSPropertyOp47
 70
     1
102
RTVSPropertyOp48
 70
     1
102
RTVSPropertyOp49
 70
     1
102
RTVSPropertyOp50
 70
     1
102
RTVSPropertyOp51
 70
     0
102
RTVSPropertyOp52
 70
     0
102
RTVSPropertyOp53
 70
     1
102
RTVSPropertyOp54
 70
     1
102
RTVSPropertyOp55
 70
     1
102
RTVSPropertyOp56
 70
     1
102
RTVSPropertyOp57
 70
     1
102
RTVSPropertyOp58
 70
     1
102
RTVSPropertyOp59
 70
     1
102
RTVSPropertyOp60
 70
     1
102
RTVSPropertyOp61
 70
     1
102
RTVSPropertyOp62
 70
     1
  0
XRECORD
  5
32E
102
{ACAD_REACTORS
330
32D
102
}
330
32D
100
AcDbXrecord
280
     1
102
RTVSPost2010Prop28
280
     0
102
RTVSPost2010PropOp28
 70
     1
102
RTVSPost2010Prop29
280
     1
102
RTVSPost2010PropOp29
 70
     1
102
RTVSPost2010Prop30
280
     1
102
RTVSPost2010PropOp30
 70
     1
102
RTVSPost2010Prop31
280
     0
102
RTVSPost2010PropOp31
 70
     1
102
RTVSPost2010Prop32
280
     0
102
RTVSPost2010PropOp32
 70
     1
102
RTVSPost2010Prop33
280
     0
102
RTVSPost2010PropOp33
 70
     1
102
RTVSPost2010Prop34
280
     0
102
RTVSPost2010PropOp34
 70
     1
102
RTVSPost2010Prop35
280
     0
102
RTVSPost2010PropOp35
 70
     1
102
RTVSPost2010Prop36
280
     0
102
RTVSPost2010PropOp36
 70
     1
102
RTVSPost2010Prop37
 90
       50
102
RTVSPost2010PropOp37
 70
     1
102
RTVSPost2010Prop38
140
0.0
102
RTVSPost2010PropOp38
 70
     1
102
RTVSPost2010Prop39
140
1.0
102
RTVSPost2010PropOp39
 70
     1
102
RTVSPost2010Prop40
 90
        0
102
RTVSPost2010PropOp40
 70
     1
102
RTVSPost2010Prop41ColorIndex
 90
       18
102
RTVSPost2010Prop41ColorRGB
 90
        0
102
RTVSPost2010PropOp41
 70
     1
102
RTVSPost2010Prop42
 90
       50
102
RTVSPost2010PropOp42
 70
     1
102
RTVSPost2010Prop43
 90
        3
102
RTVSPost2010PropOp43
 70
     1
102
RTVSPost2010Prop44ColorIndex
 90
        5
102
RTVSPost2010Prop44ColorRGB
 90
      255
102
RTVSPost2010PropOp44
 70
     1
102
RTVSPost2010Prop45
280
     0
102
RTVSPost2010PropOp45
 70
     1
102
RTVSPost2010Prop46
 90
       50
102
RTVSPost2010PropOp46
 70
     1
102
RTVSPost2010Prop47
 90
       50
102
RTVSPost2010PropOp47
 70
     1
102
RTVSPost2010Prop48
 90
       50
102
RTVSPost2010PropOp48
 70
     1
102
RTVSPost2010Prop49
280
     0
102
RTVSPost2010PropOp49
 70
     1
102
RTVSPost2010Prop50
 90
       50
102
RTVSPost2010PropOp50
 70
     1
102
RTVSPost2010Prop51ColorIndex
 90
      256
102
RTVSPost2010Prop51ColorRGB
 90
-16777216
102
RTVSPost2010PropOp51
 70
     0
102
RTVSPost2010Prop52
140
1.0
102
RTVSPost2010PropOp52
 70
     0
102
RTVSPost2010Prop53
 90
        2
102
RTVSPost2010PropOp53
 70
     1
102
RTVSPost2010Prop54
  1
strokes_ogs.tif
102
RTVSPost2010PropOp54
 70
     1
102
RTVSPost2010Prop55
280
     0
102
RTVSPost2010PropOp55
 70
     1
102
RTVSPost2010Prop56
140
1.0
102
RTVSPost2010PropOp56
 70
     1
102
RTVSPost2010Prop57
140
1.0
102
RTVSPost2010PropOp57
 70
     1
102
RTVSPropertyOp0
 70
     1
102
RTVSPropertyOp1
 70
     1
102
RTVSPropertyOp2
 70
     1
102
RTVSPropertyOp3
 70
     1
102
RTVSPropertyOp4
 70
     1
102
RTVSPropertyOp5
 70
     1
102
RTVSPropertyOp6
 70
     1
102
RTVSPropertyOp7
 70
     1
102
RTVSPropertyOp8
 70
     1
102
RTVSPropertyOp9
 70
     1
102
RTVSPropertyOp10
 70
     1
102
RTVSPropertyOp11
 70
     1
102
RTVSPropertyOp12
 70
     1
102
RTVSPropertyOp13
 70
     1
102
RTVSPropertyOp14
 70
     1
102
RTVSPropertyOp15
 70
     1
102
RTVSPropertyOp16
 70
     1
102
RTVSPropertyOp17
 70
     1
102
RTVSPropertyOp18
 70
     1
102
RTVSPropertyOp19
 70
     1
102
RTVSPropertyOp20
 70
     1
102
RTVSPropertyOp21
 70
     1
102
RTVSPropertyOp22
 70
     1
102
RTVSPropertyOp23
 70
     1
102
RTVSPropertyOp24
 70
     1
102
RTVSPropertyOp25
 70
     1
102
RTVSPropertyOp26
 70
     1
102
RTVSPropertyOp27
 70
     1
102
RTVSPropertyOp28
 70
     1
102
RTVSPropertyOp29
 70
     1
102
RTVSPropertyOp30
 70
     1
102
RTVSPropertyOp31
 70
     1
102
RTVSPropertyOp32
 70
     1
102
RTVSPropertyOp33
 70
     1
102
RTVSPropertyOp34
 70
     1
102
RTVSPropertyOp35
 70
     1
102
RTVSPropertyOp36
 70
     1
102
RTVSPropertyOp37
 70
     1
102
RTVSPropertyOp38
 70
     1
102
RTVSPropertyOp39
 70
     1
102
RTVSPropertyOp40
 70
     1
102
RTVSPropertyOp41
 70
     1
102
RTVSPropertyOp42
 70
     1
102
RTVSPropertyOp43
 70
     1
102
RTVSPropertyOp44
 70
     1
102
RTVSPropertyOp45
 70
     1
102
RTVSPropertyOp46
 70
     1
102
RTVSPropertyOp47
 70
     1
102
RTVSPropertyOp48
 70
     1
102
RTVSPropertyOp49
 70
     1
102
RTVSPropertyOp50
 70
     1
102
RTVSPropertyOp51
 70
     0
102
RTVSPropertyOp52
 70
     0
102
RTVSPropertyOp53
 70
     1
102
RTVSPropertyOp54
 70
     1
102
RTVSPropertyOp55
 70
     1
102
RTVSPropertyOp56
 70
     1
102
RTVSPropertyOp57
 70
     1
102
RTVSPropertyOp58
 70
     1
102
RTVSPropertyOp59
 70
     1
102
RTVSPropertyOp60
 70
     1
102
RTVSPropertyOp61
 70
     1
102
RTVSPropertyOp62
 70
     1
  0
XRECORD
  5
33C
102
{ACAD_REACTORS
330
33B
102
}
330
33B
100
AcDbXrecord
280
     1
102
RTVSPost2010Prop28
280
     0
102
RTVSPost2010PropOp28
 70
     1
102
RTVSPost2010Prop29
280
     1
102
RTVSPost2010PropOp29
 70
     1
102
RTVSPost2010Prop30
280
     1
102
RTVSPost2010PropOp30
 70
     1
102
RTVSPost2010Prop31
280
     0
102
RTVSPost2010PropOp31
 70
     1
102
RTVSPost2010Prop32
280
     0
102
RTVSPost2010PropOp32
 70
     1
102
RTVSPost2010Prop33
280
     0
102
RTVSPost2010PropOp33
 70
     1
102
RTVSPost2010Prop34
280
     0
102
RTVSPost2010PropOp34
 70
     1
102
RTVSPost2010Prop35
280
     0
102
RTVSPost2010PropOp35
 70
     1
102
RTVSPost2010Prop36
280
     0
102
RTVSPost2010PropOp36
 70
     1
102
RTVSPost2010Prop37
 90
       50
102
RTVSPost2010PropOp37
 70
     1
102
RTVSPost2010Prop38
140
0.0
102
RTVSPost2010PropOp38
 70
     1
102
RTVSPost2010Prop39
140
1.0
102
RTVSPost2010PropOp39
 70
     1
102
RTVSPost2010Prop40
 90
        0
102
RTVSPost2010PropOp40
 70
     1
102
RTVSPost2010Prop41ColorIndex
 90
       18
102
RTVSPost2010Prop41ColorRGB
 90
        0
102
RTVSPost2010PropOp41
 70
     1
102
RTVSPost2010Prop42
 90
       50
102
RTVSPost2010PropOp42
 70
     1
102
RTVSPost2010Prop43
 90
        3
102
RTVSPost2010PropOp43
 70
     1
102
RTVSPost2010Prop44ColorIndex
 90
        5
102
RTVSPost2010Prop44ColorRGB
 90
      255
102
RTVSPost2010PropOp44
 70
     1
102
RTVSPost2010Prop45
280
     0
102
RTVSPost2010PropOp45
 70
     1
102
RTVSPost2010Prop46
 90
       50
102
RTVSPost2010PropOp46
 70
     1
102
RTVSPost2010Prop47
 90
       50
102
RTVSPost2010PropOp47
 70
     1
102
RTVSPost2010Prop48
 90
       50
102
RTVSPost2010PropOp48
 70
     1
102
RTVSPost2010Prop49
280
     0
102
RTVSPost2010PropOp49
 70
     1
102
RTVSPost2010Prop50
 90
       50
102
RTVSPost2010PropOp50
 70
     1
102
RTVSPost2010Prop51ColorIndex
 90
      256
102
RTVSPost2010Prop51ColorRGB
 90
-16777216
102
RTVSPost2010PropOp51
 70
     0
102
RTVSPost2010Prop52
140
1.0
102
RTVSPost2010PropOp52
 70
     0
102
RTVSPost2010Prop53
 90
        2
102
RTVSPost2010PropOp53
 70
     1
102
RTVSPost2010Prop54
  1
strokes_ogs.tif
102
RTVSPost2010PropOp54
 70
     1
102
RTVSPost2010Prop55
280
     0
102
RTVSPost2010PropOp55
 70
     1
102
RTVSPost2010Prop56
140
1.0
102
RTVSPost2010PropOp56
 70
     1
102
RTVSPost2010Prop57
140
1.0
102
RTVSPost2010PropOp57
 70
     1
102
RTVSPropertyOp0
 70
     1
102
RTVSPropertyOp1
 70
     1
102
RTVSPropertyOp2
 70
     1
102
RTVSPropertyOp3
 70
     1
102
RTVSPropertyOp4
 70
     1
102
RTVSPropertyOp5
 70
     1
102
RTVSPropertyOp6
 70
     1
102
RTVSPropertyOp7
 70
     1
102
RTVSPropertyOp8
 70
     1
102
RTVSPropertyOp9
 70
     1
102
RTVSPropertyOp10
 70
     1
102
RTVSPropertyOp11
 70
     1
102
RTVSPropertyOp12
 70
     1
102
RTVSPropertyOp13
 70
     1
102
RTVSPropertyOp14
 70
     1
102
RTVSPropertyOp15
 70
     1
102
RTVSPropertyOp16
 70
     1
102
RTVSPropertyOp17
 70
     1
102
RTVSPropertyOp18
 70
     1
102
RTVSPropertyOp19
 70
     1
102
RTVSPropertyOp20
 70
     1
102
RTVSPropertyOp21
 70
     1
102
RTVSPropertyOp22
 70
     1
102
RTVSPropertyOp23
 70
     1
102
RTVSPropertyOp24
 70
     1
102
RTVSPropertyOp25
 70
     1
102
RTVSPropertyOp26
 70
     1
102
RTVSPropertyOp27
 70
     1
102
RTVSPropertyOp28
 70
     1
102
RTVSPropertyOp29
 70
     1
102
RTVSPropertyOp30
 70
     1
102
RTVSPropertyOp31
 70
     1
102
RTVSPropertyOp32
 70
     1
102
RTVSPropertyOp33
 70
     1
102
RTVSPropertyOp34
 70
     1
102
RTVSPropertyOp35
 70
     1
102
RTVSPropertyOp36
 70
     1
102
RTVSPropertyOp37
 70
     1
102
RTVSPropertyOp38
 70
     1
102
RTVSPropertyOp39
 70
     1
102
RTVSPropertyOp40
 70
     1
102
RTVSPropertyOp41
 70
     1
102
RTVSPropertyOp42
 70
     1
102
RTVSPropertyOp43
 70
     1
102
RTVSPropertyOp44
 70
     1
102
RTVSPropertyOp45
 70
     1
102
RTVSPropertyOp46
 70
     1
102
RTVSPropertyOp47
 70
     1
102
RTVSPropertyOp48
 70
     1
102
RTVSPropertyOp49
 70
     1
102
RTVSPropertyOp50
 70
     1
102
RTVSPropertyOp51
 70
     0
102
RTVSPropertyOp52
 70
     0
102
RTVSPropertyOp53
 70
     1
102
RTVSPropertyOp54
 70
     1
102
RTVSPropertyOp55
 70
     1
102
RTVSPropertyOp56
 70
     1
102
RTVSPropertyOp57
 70
     1
102
RTVSPropertyOp58
 70
     1
102
RTVSPropertyOp59
 70
     1
102
RTVSPropertyOp60
 70
     1
102
RTVSPropertyOp61
 70
     1
102
RTVSPropertyOp62
 70
     1
  0
XRECORD
  5
344
102
{ACAD_REACTORS
330
343
102
}
330
343
100
AcDbXrecord
280
     1
102
RTVSPost2010Prop28
280
     0
102
RTVSPost2010PropOp28
 70
     1
102
RTVSPost2010Prop29
280
     1
102
RTVSPost2010PropOp29
 70
     1
102
RTVSPost2010Prop30
280
     1
102
RTVSPost2010PropOp30
 70
     1
102
RTVSPost2010Prop31
280
     0
102
RTVSPost2010PropOp31
 70
     1
102
RTVSPost2010Prop32
280
     0
102
RTVSPost2010PropOp32
 70
     1
102
RTVSPost2010Prop33
280
     0
102
RTVSPost2010PropOp33
 70
     1
102
RTVSPost2010Prop34
280
     0
102
RTVSPost2010PropOp34
 70
     1
102
RTVSPost2010Prop35
280
     0
102
RTVSPost2010PropOp35
 70
     1
102
RTVSPost2010Prop36
280
     0
102
RTVSPost2010PropOp36
 70
     1
102
RTVSPost2010Prop37
 90
       50
102
RTVSPost2010PropOp37
 70
     1
102
RTVSPost2010Prop38
140
0.0
102
RTVSPost2010PropOp38
 70
     1
102
RTVSPost2010Prop39
140
1.0
102
RTVSPost2010PropOp39
 70
     1
102
RTVSPost2010Prop40
 90
        0
102
RTVSPost2010PropOp40
 70
     1
102
RTVSPost2010Prop41ColorIndex
 90
       18
102
RTVSPost2010Prop41ColorRGB
 90
        0
102
RTVSPost2010PropOp41
 70
     1
102
RTVSPost2010Prop42
 90
       50
102
RTVSPost2010PropOp42
 70
     1
102
RTVSPost2010Prop43
 90
        3
102
RTVSPost2010PropOp43
 70
     1
102
RTVSPost2010Prop44ColorIndex
 90
        5
102
RTVSPost2010Prop44ColorRGB
 90
      255
102
RTVSPost2010PropOp44
 70
     1
102
RTVSPost2010Prop45
280
     0
102
RTVSPost2010PropOp45
 70
     1
102
RTVSPost2010Prop46
 90
       50
102
RTVSPost2010PropOp46
 70
     1
102
RTVSPost2010Prop47
 90
       50
102
RTVSPost2010PropOp47
 70
     1
102
RTVSPost2010Prop48
 90
       50
102
RTVSPost2010PropOp48
 70
     1
102
RTVSPost2010Prop49
280
     0
102
RTVSPost2010PropOp49
 70
     1
102
RTVSPost2010Prop50
 90
       50
102
RTVSPost2010PropOp50
 70
     1
102
RTVSPost2010Prop51ColorIndex
 90
      256
102
RTVSPost2010Prop51ColorRGB
 90
-16777216
102
RTVSPost2010PropOp51
 70
     0
102
RTVSPost2010Prop52
140
1.0
102
RTVSPost2010PropOp52
 70
     0
102
RTVSPost2010Prop53
 90
        2
102
RTVSPost2010PropOp53
 70
     1
102
RTVSPost2010Prop54
  1
strokes_ogs.tif
102
RTVSPost2010PropOp54
 70
     1
102
RTVSPost2010Prop55
280
     0
102
RTVSPost2010PropOp55
 70
     1
102
RTVSPost2010Prop56
140
1.0
102
RTVSPost2010PropOp56
 70
     1
102
RTVSPost2010Prop57
140
1.0
102
RTVSPost2010PropOp57
 70
     1
102
RTVSPropertyOp0
 70
     1
102
RTVSPropertyOp1
 70
     1
102
RTVSPropertyOp2
 70
     1
102
RTVSPropertyOp3
 70
     1
102
RTVSPropertyOp4
 70
     1
102
RTVSPropertyOp5
 70
     1
102
RTVSPropertyOp6
 70
     1
102
RTVSPropertyOp7
 70
     1
102
RTVSPropertyOp8
 70
     1
102
RTVSPropertyOp9
 70
     1
102
RTVSPropertyOp10
 70
     1
102
RTVSPropertyOp11
 70
     1
102
RTVSPropertyOp12
 70
     1
102
RTVSPropertyOp13
 70
     1
102
RTVSPropertyOp14
 70
     1
102
RTVSPropertyOp15
 70
     1
102
RTVSPropertyOp16
 70
     1
102
RTVSPropertyOp17
 70
     1
102
RTVSPropertyOp18
 70
     1
102
RTVSPropertyOp19
 70
     1
102
RTVSPropertyOp20
 70
     1
102
RTVSPropertyOp21
 70
     1
102
RTVSPropertyOp22
 70
     1
102
RTVSPropertyOp23
 70
     1
102
RTVSPropertyOp24
 70
     1
102
RTVSPropertyOp25
 70
     1
102
RTVSPropertyOp26
 70
     1
102
RTVSPropertyOp27
 70
     1
102
RTVSPropertyOp28
 70
     1
102
RTVSPropertyOp29
 70
     1
102
RTVSPropertyOp30
 70
     1
102
RTVSPropertyOp31
 70
     1
102
RTVSPropertyOp32
 70
     1
102
RTVSPropertyOp33
 70
     1
102
RTVSPropertyOp34
 70
     1
102
RTVSPropertyOp35
 70
     1
102
RTVSPropertyOp36
 70
     1
102
RTVSPropertyOp37
 70
     1
102
RTVSPropertyOp38
 70
     1
102
RTVSPropertyOp39
 70
     1
102
RTVSPropertyOp40
 70
     1
102
RTVSPropertyOp41
 70
     1
102
RTVSPropertyOp42
 70
     1
102
RTVSPropertyOp43
 70
     1
102
RTVSPropertyOp44
 70
     1
102
RTVSPropertyOp45
 70
     1
102
RTVSPropertyOp46
 70
     1
102
RTVSPropertyOp47
 70
     1
102
RTVSPropertyOp48
 70
     1
102
RTVSPropertyOp49
 70
     1
102
RTVSPropertyOp50
 70
     1
102
RTVSPropertyOp51
 70
     0
102
RTVSPropertyOp52
 70
     0
102
RTVSPropertyOp53
 70
     1
102
RTVSPropertyOp54
 70
     1
102
RTVSPropertyOp55
 70
     1
102
RTVSPropertyOp56
 70
     1
102
RTVSPropertyOp57
 70
     1
102
RTVSPropertyOp58
 70
     1
102
RTVSPropertyOp59
 70
     1
102
RTVSPropertyOp60
 70
     1
102
RTVSPropertyOp61
 70
     1
102
RTVSPropertyOp62
 70
     1
  0
XRECORD
  5
336
102
{ACAD_REACTORS
330
335
102
}
330
335
100
AcDbXrecord
280
     1
102
RTVSPost2010Prop28
280
     0
102
RTVSPost2010PropOp28
 70
     1
102
RTVSPost2010Prop29
280
     1
102
RTVSPost2010PropOp29
 70
     1
102
RTVSPost2010Prop30
280
     1
102
RTVSPost2010PropOp30
 70
     1
102
RTVSPost2010Prop31
280
     0
102
RTVSPost2010PropOp31
 70
     1
102
RTVSPost2010Prop32
280
     0
102
RTVSPost2010PropOp32
 70
     1
102
RTVSPost2010Prop33
280
     0
102
RTVSPost2010PropOp33
 70
     1
102
RTVSPost2010Prop34
280
     0
102
RTVSPost2010PropOp34
 70
     1
102
RTVSPost2010Prop35
280
     0
102
RTVSPost2010PropOp35
 70
     1
102
RTVSPost2010Prop36
280
     0
102
RTVSPost2010PropOp36
 70
     1
102
RTVSPost2010Prop37
 90
       50
102
RTVSPost2010PropOp37
 70
     1
102
RTVSPost2010Prop38
140
0.0
102
RTVSPost2010PropOp38
 70
     1
102
RTVSPost2010Prop39
140
1.0
102
RTVSPost2010PropOp39
 70
     1
102
RTVSPost2010Prop40
 90
        0
102
RTVSPost2010PropOp40
 70
     1
102
RTVSPost2010Prop41ColorIndex
 90
       18
102
RTVSPost2010Prop41ColorRGB
 90
        0
102
RTVSPost2010PropOp41
 70
     1
102
RTVSPost2010Prop42
 90
       50
102
RTVSPost2010PropOp42
 70
     1
102
RTVSPost2010Prop43
 90
        3
102
RTVSPost2010PropOp43
 70
     1
102
RTVSPost2010Prop44ColorIndex
 90
        5
102
RTVSPost2010Prop44ColorRGB
 90
      255
102
RTVSPost2010PropOp44
 70
     1
102
RTVSPost2010Prop45
280
     0
102
RTVSPost2010PropOp45
 70
     1
102
RTVSPost2010Prop46
 90
       50
102
RTVSPost2010PropOp46
 70
     1
102
RTVSPost2010Prop47
 90
       50
102
RTVSPost2010PropOp47
 70
     1
102
RTVSPost2010Prop48
 90
       50
102
RTVSPost2010PropOp48
 70
     1
102
RTVSPost2010Prop49
280
     0
102
RTVSPost2010PropOp49
 70
     1
102
RTVSPost2010Prop50
 90
       50
102
RTVSPost2010PropOp50
 70
     1
102
RTVSPost2010Prop51ColorIndex
 90
      256
102
RTVSPost2010Prop51ColorRGB
 90
-16777216
102
RTVSPost2010PropOp51
 70
     0
102
RTVSPost2010Prop52
140
1.0
102
RTVSPost2010PropOp52
 70
     0
102
RTVSPost2010Prop53
 90
        2
102
RTVSPost2010PropOp53
 70
     1
102
RTVSPost2010Prop54
  1
strokes_ogs.tif
102
RTVSPost2010PropOp54
 70
     1
102
RTVSPost2010Prop55
280
     0
102
RTVSPost2010PropOp55
 70
     1
102
RTVSPost2010Prop56
140
1.0
102
RTVSPost2010PropOp56
 70
     1
102
RTVSPost2010Prop57
140
1.0
102
RTVSPost2010PropOp57
 70
     1
102
RTVSPropertyOp0
 70
     1
102
RTVSPropertyOp1
 70
     1
102
RTVSPropertyOp2
 70
     1
102
RTVSPropertyOp3
 70
     1
102
RTVSPropertyOp4
 70
     1
102
RTVSPropertyOp5
 70
     1
102
RTVSPropertyOp6
 70
     1
102
RTVSPropertyOp7
 70
     1
102
RTVSPropertyOp8
 70
     1
102
RTVSPropertyOp9
 70
     1
102
RTVSPropertyOp10
 70
     1
102
RTVSPropertyOp11
 70
     1
102
RTVSPropertyOp12
 70
     1
102
RTVSPropertyOp13
 70
     1
102
RTVSPropertyOp14
 70
     1
102
RTVSPropertyOp15
 70
     1
102
RTVSPropertyOp16
 70
     1
102
RTVSPropertyOp17
 70
     1
102
RTVSPropertyOp18
 70
     1
102
RTVSPropertyOp19
 70
     1
102
RTVSPropertyOp20
 70
     1
102
RTVSPropertyOp21
 70
     1
102
RTVSPropertyOp22
 70
     1
102
RTVSPropertyOp23
 70
     1
102
RTVSPropertyOp24
 70
     1
102
RTVSPropertyOp25
 70
     1
102
RTVSPropertyOp26
 70
     1
102
RTVSPropertyOp27
 70
     1
102
RTVSPropertyOp28
 70
     1
102
RTVSPropertyOp29
 70
     1
102
RTVSPropertyOp30
 70
     1
102
RTVSPropertyOp31
 70
     1
102
RTVSPropertyOp32
 70
     1
102
RTVSPropertyOp33
 70
     1
102
RTVSPropertyOp34
 70
     1
102
RTVSPropertyOp35
 70
     1
102
RTVSPropertyOp36
 70
     1
102
RTVSPropertyOp37
 70
     1
102
RTVSPropertyOp38
 70
     1
102
RTVSPropertyOp39
 70
     1
102
RTVSPropertyOp40
 70
     1
102
RTVSPropertyOp41
 70
     1
102
RTVSPropertyOp42
 70
     1
102
RTVSPropertyOp43
 70
     1
102
RTVSPropertyOp44
 70
     1
102
RTVSPropertyOp45
 70
     1
102
RTVSPropertyOp46
 70
     1
102
RTVSPropertyOp47
 70
     1
102
RTVSPropertyOp48
 70
     1
102
RTVSPropertyOp49
 70
     1
102
RTVSPropertyOp50
 70
     1
102
RTVSPropertyOp51
 70
     0
102
RTVSPropertyOp52
 70
     0
102
RTVSPropertyOp53
 70
     1
102
RTVSPropertyOp54
 70
     1
102
RTVSPropertyOp55
 70
     1
102
RTVSPropertyOp56
 70
     1
102
RTVSPropertyOp57
 70
     1
102
RTVSPropertyOp58
 70
     1
102
RTVSPropertyOp59
 70
     1
102
RTVSPropertyOp60
 70
     1
102
RTVSPropertyOp61
 70
     1
102
RTVSPropertyOp62
 70
     1
  0
XRECORD
  5
33A
102
{ACAD_REACTORS
330
339
102
}
330
339
100
AcDbXrecord
280
     1
102
RTVSPost2010Prop28
280
     0
102
RTVSPost2010PropOp28
 70
     1
102
RTVSPost2010Prop29
280
     1
102
RTVSPost2010PropOp29
 70
     1
102
RTVSPost2010Prop30
280
     1
102
RTVSPost2010PropOp30
 70
     1
102
RTVSPost2010Prop31
280
     0
102
RTVSPost2010PropOp31
 70
     1
102
RTVSPost2010Prop32
280
     0
102
RTVSPost2010PropOp32
 70
     1
102
RTVSPost2010Prop33
280
     0
102
RTVSPost2010PropOp33
 70
     1
102
RTVSPost2010Prop34
280
     0
102
RTVSPost2010PropOp34
 70
     1
102
RTVSPost2010Prop35
280
     0
102
RTVSPost2010PropOp35
 70
     1
102
RTVSPost2010Prop36
280
     0
102
RTVSPost2010PropOp36
 70
     1
102
RTVSPost2010Prop37
 90
       50
102
RTVSPost2010PropOp37
 70
     1
102
RTVSPost2010Prop38
140
0.0
102
RTVSPost2010PropOp38
 70
     1
102
RTVSPost2010Prop39
140
1.0
102
RTVSPost2010PropOp39
 70
     1
102
RTVSPost2010Prop40
 90
        0
102
RTVSPost2010PropOp40
 70
     1
102
RTVSPost2010Prop41ColorIndex
 90
       18
102
RTVSPost2010Prop41ColorRGB
 90
        0
102
RTVSPost2010PropOp41
 70
     1
102
RTVSPost2010Prop42
 90
       50
102
RTVSPost2010PropOp42
 70
     1
102
RTVSPost2010Prop43
 90
        3
102
RTVSPost2010PropOp43
 70
     1
102
RTVSPost2010Prop44ColorIndex
 90
        5
102
RTVSPost2010Prop44ColorRGB
 90
      255
102
RTVSPost2010PropOp44
 70
     1
102
RTVSPost2010Prop45
280
     0
102
RTVSPost2010PropOp45
 70
     1
102
RTVSPost2010Prop46
 90
       50
102
RTVSPost2010PropOp46
 70
     1
102
RTVSPost2010Prop47
 90
       50
102
RTVSPost2010PropOp47
 70
     1
102
RTVSPost2010Prop48
 90
       50
102
RTVSPost2010PropOp48
 70
     1
102
RTVSPost2010Prop49
280
     0
102
RTVSPost2010PropOp49
 70
     1
102
RTVSPost2010Prop50
 90
       50
102
RTVSPost2010PropOp50
 70
     1
102
RTVSPost2010Prop51ColorIndex
 90
      256
102
RTVSPost2010Prop51ColorRGB
 90
-16777216
102
RTVSPost2010PropOp51
 70
     0
102
RTVSPost2010Prop52
140
1.0
102
RTVSPost2010PropOp52
 70
     0
102
RTVSPost2010Prop53
 90
        2
102
RTVSPost2010PropOp53
 70
     1
102
RTVSPost2010Prop54
  1
strokes_ogs.tif
102
RTVSPost2010PropOp54
 70
     1
102
RTVSPost2010Prop55
280
     0
102
RTVSPost2010PropOp55
 70
     1
102
RTVSPost2010Prop56
140
1.0
102
RTVSPost2010PropOp56
 70
     1
102
RTVSPost2010Prop57
140
1.0
102
RTVSPost2010PropOp57
 70
     1
102
RTVSPropertyOp0
 70
     1
102
RTVSPropertyOp1
 70
     1
102
RTVSPropertyOp2
 70
     1
102
RTVSPropertyOp3
 70
     1
102
RTVSPropertyOp4
 70
     1
102
RTVSPropertyOp5
 70
     1
102
RTVSPropertyOp6
 70
     1
102
RTVSPropertyOp7
 70
     1
102
RTVSPropertyOp8
 70
     1
102
RTVSPropertyOp9
 70
     1
102
RTVSPropertyOp10
 70
     1
102
RTVSPropertyOp11
 70
     1
102
RTVSPropertyOp12
 70
     1
102
RTVSPropertyOp13
 70
     1
102
RTVSPropertyOp14
 70
     1
102
RTVSPropertyOp15
 70
     1
102
RTVSPropertyOp16
 70
     1
102
RTVSPropertyOp17
 70
     1
102
RTVSPropertyOp18
 70
     1
102
RTVSPropertyOp19
 70
     1
102
RTVSPropertyOp20
 70
     1
102
RTVSPropertyOp21
 70
     1
102
RTVSPropertyOp22
 70
     1
102
RTVSPropertyOp23
 70
     1
102
RTVSPropertyOp24
 70
     1
102
RTVSPropertyOp25
 70
     1
102
RTVSPropertyOp26
 70
     1
102
RTVSPropertyOp27
 70
     1
102
RTVSPropertyOp28
 70
     1
102
RTVSPropertyOp29
 70
     1
102
RTVSPropertyOp30
 70
     1
102
RTVSPropertyOp31
 70
     1
102
RTVSPropertyOp32
 70
     1
102
RTVSPropertyOp33
 70
     1
102
RTVSPropertyOp34
 70
     1
102
RTVSPropertyOp35
 70
     1
102
RTVSPropertyOp36
 70
     1
102
RTVSPropertyOp37
 70
     1
102
RTVSPropertyOp38
 70
     1
102
RTVSPropertyOp39
 70
     1
102
RTVSPropertyOp40
 70
     1
102
RTVSPropertyOp41
 70
     1
102
RTVSPropertyOp42
 70
     1
102
RTVSPropertyOp43
 70
     1
102
RTVSPropertyOp44
 70
     1
102
RTVSPropertyOp45
 70
     1
102
RTVSPropertyOp46
 70
     1
102
RTVSPropertyOp47
 70
     1
102
RTVSPropertyOp48
 70
     1
102
RTVSPropertyOp49
 70
     1
102
RTVSPropertyOp50
 70
     1
102
RTVSPropertyOp51
 70
     0
102
RTVSPropertyOp52
 70
     0
102
RTVSPropertyOp53
 70
     1
102
RTVSPropertyOp54
 70
     1
102
RTVSPropertyOp55
 70
     1
102
RTVSPropertyOp56
 70
     1
102
RTVSPropertyOp57
 70
     1
102
RTVSPropertyOp58
 70
     1
102
RTVSPropertyOp59
 70
     1
102
RTVSPropertyOp60
 70
     1
102
RTVSPropertyOp61
 70
     1
102
RTVSPropertyOp62
 70
     1
  0
XRECORD
  5
354
102
{ACAD_REACTORS
330
353
102
}
330
353
100
AcDbXrecord
280
     1
102
RTVSPost2010Prop28
280
     0
102
RTVSPost2010PropOp28
 70
     0
102
RTVSPost2010Prop29
280
     1
102
RTVSPost2010PropOp29
 70
     0
102
RTVSPost2010Prop30
280
     1
102
RTVSPost2010PropOp30
 70
     0
102
RTVSPost2010Prop31
280
     0
102
RTVSPost2010PropOp31
 70
     0
102
RTVSPost2010Prop32
280
     0
102
RTVSPost2010PropOp32
 70
     0
102
RTVSPost2010Prop33
280
     0
102
RTVSPost2010PropOp33
 70
     0
102
RTVSPost2010Prop34
280
     0
102
RTVSPost2010PropOp34
 70
     0
102
RTVSPost2010Prop35
280
     0
102
RTVSPost2010PropOp35
 70
     0
102
RTVSPost2010Prop36
280
     0
102
RTVSPost2010PropOp36
 70
     0
102
RTVSPost2010Prop37
 90
       50
102
RTVSPost2010PropOp37
 70
     0
102
RTVSPost2010Prop38
140
0.0
102
RTVSPost2010PropOp38
 70
     0
102
RTVSPost2010Prop39
140
1.0
102
RTVSPost2010PropOp39
 70
     0
102
RTVSPost2010Prop40
 90
        0
102
RTVSPost2010PropOp40
 70
     0
102
RTVSPost2010Prop41ColorIndex
 90
       18
102
RTVSPost2010Prop41ColorRGB
 90
        0
102
RTVSPost2010PropOp41
 70
     0
102
RTVSPost2010Prop42
 90
       50
102
RTVSPost2010PropOp42
 70
     0
102
RTVSPost2010Prop43
 90
        3
102
RTVSPost2010PropOp43
 70
     0
102
RTVSPost2010Prop44ColorIndex
 90
        5
102
RTVSPost2010Prop44ColorRGB
 90
      255
102
RTVSPost2010PropOp44
 70
     0
102
RTVSPost2010Prop45
280
     0
102
RTVSPost2010PropOp45
 70
     0
102
RTVSPost2010Prop46
 90
       50
102
RTVSPost2010PropOp46
 70
     0
102
RTVSPost2010Prop47
 90
       50
102
RTVSPost2010PropOp47
 70
     0
102
RTVSPost2010Prop48
 90
       50
102
RTVSPost2010PropOp48
 70
     0
102
RTVSPost2010Prop49
280
     0
102
RTVSPost2010PropOp49
 70
     0
102
RTVSPost2010Prop50
 90
       50
102
RTVSPost2010PropOp50
 70
     0
102
RTVSPost2010Prop51ColorIndex
 90
      256
102
RTVSPost2010Prop51ColorRGB
 90
-16777216
102
RTVSPost2010PropOp51
 70
     0
102
RTVSPost2010Prop52
140
1.0
102
RTVSPost2010PropOp52
 70
     0
102
RTVSPost2010Prop53
 90
        2
102
RTVSPost2010PropOp53
 70
     0
102
RTVSPost2010Prop54
  1
strokes_ogs.tif
102
RTVSPost2010PropOp54
 70
     0
102
RTVSPost2010Prop55
280
     0
102
RTVSPost2010PropOp55
 70
     0
102
RTVSPost2010Prop56
140
1.0
102
RTVSPost2010PropOp56
 70
     0
102
RTVSPost2010Prop57
140
1.0
102
RTVSPost2010PropOp57
 70
     0
102
RTVSPropertyOp0
 70
     0
102
RTVSPropertyOp1
 70
     0
102
RTVSPropertyOp2
 70
     0
102
RTVSPropertyOp3
 70
     0
102
RTVSPropertyOp4
 70
     0
102
RTVSPropertyOp5
 70
     0
102
RTVSPropertyOp6
 70
     0
102
RTVSPropertyOp7
 70
     0
102
RTVSPropertyOp8
 70
     0
102
RTVSPropertyOp9
 70
     0
102
RTVSPropertyOp10
 70
     0
102
RTVSPropertyOp11
 70
     0
102
RTVSPropertyOp12
 70
     0
102
RTVSPropertyOp13
 70
     0
102
RTVSPropertyOp14
 70
     2
102
RTVSPropertyOp15
 70
     0
102
RTVSPropertyOp16
 70
     0
102
RTVSPropertyOp17
 70
     0
102
RTVSPropertyOp18
 70
     0
102
RTVSPropertyOp19
 70
     0
102
RTVSPropertyOp20
 70
     0
102
RTVSPropertyOp21
 70
     0
102
RTVSPropertyOp22
 70
     0
102
RTVSPropertyOp23
 70
     0
102
RTVSPropertyOp24
 70
     0
102
RTVSPropertyOp25
 70
     0
102
RTVSPropertyOp26
 70
     0
102
RTVSPropertyOp27
 70
     0
102
RTVSPropertyOp28
 70
     0
102
RTVSPropertyOp29
 70
     0
102
RTVSPropertyOp30
 70
     0
102
RTVSPropertyOp31
 70
     0
102
RTVSPropertyOp32
 70
     0
102
RTVSPropertyOp33
 70
     0
102
RTVSPropertyOp34
 70
     0
102
RTVSPropertyOp35
 70
     0
102
RTVSPropertyOp36
 70
     0
102
RTVSPropertyOp37
 70
     0
102
RTVSPropertyOp38
 70
     0
102
RTVSPropertyOp39
 70
     0
102
RTVSPropertyOp40
 70
     0
102
RTVSPropertyOp41
 70
     0
102
RTVSPropertyOp42
 70
     0
102
RTVSPropertyOp43
 70
     0
102
RTVSPropertyOp44
 70
     0
102
RTVSPropertyOp45
 70
     0
102
RTVSPropertyOp46
 70
     0
102
RTVSPropertyOp47
 70
     0
102
RTVSPropertyOp48
 70
     0
102
RTVSPropertyOp49
 70
     0
102
RTVSPropertyOp50
 70
     0
102
RTVSPropertyOp51
 70
     0
102
RTVSPropertyOp52
 70
     0
102
RTVSPropertyOp53
 70
     0
102
RTVSPropertyOp54
 70
     0
102
RTVSPropertyOp55
 70
     0
102
RTVSPropertyOp56
 70
     0
102
RTVSPropertyOp57
 70
     0
102
RTVSPropertyOp58
 70
     1
102
RTVSPropertyOp59
 70
     1
102
RTVSPropertyOp60
 70
     1
102
RTVSPropertyOp61
 70
     1
102
RTVSPropertyOp62
 70
     1
  0
XRECORD
  5
342
102
{ACAD_REACTORS
330
341
102
}
330
341
100
AcDbXrecord
280
     1
102
RTVSPost2010Prop28
280
     0
102
RTVSPost2010PropOp28
 70
     1
102
RTVSPost2010Prop29
280
     1
102
RTVSPost2010PropOp29
 70
     1
102
RTVSPost2010Prop30
280
     1
102
RTVSPost2010PropOp30
 70
     1
102
RTVSPost2010Prop31
280
     0
102
RTVSPost2010PropOp31
 70
     1
102
RTVSPost2010Prop32
280
     0
102
RTVSPost2010PropOp32
 70
     1
102
RTVSPost2010Prop33
280
     0
102
RTVSPost2010PropOp33
 70
     1
102
RTVSPost2010Prop34
280
     0
102
RTVSPost2010PropOp34
 70
     1
102
RTVSPost2010Prop35
280
     0
102
RTVSPost2010PropOp35
 70
     1
102
RTVSPost2010Prop36
280
     0
102
RTVSPost2010PropOp36
 70
     1
102
RTVSPost2010Prop37
 90
       50
102
RTVSPost2010PropOp37
 70
     1
102
RTVSPost2010Prop38
140
0.0
102
RTVSPost2010PropOp38
 70
     1
102
RTVSPost2010Prop39
140
1.0
102
RTVSPost2010PropOp39
 70
     1
102
RTVSPost2010Prop40
 90
        0
102
RTVSPost2010PropOp40
 70
     1
102
RTVSPost2010Prop41ColorIndex
 90
       18
102
RTVSPost2010Prop41ColorRGB
 90
        0
102
RTVSPost2010PropOp41
 70
     1
102
RTVSPost2010Prop42
 90
       50
102
RTVSPost2010PropOp42
 70
     1
102
RTVSPost2010Prop43
 90
        3
102
RTVSPost2010PropOp43
 70
     1
102
RTVSPost2010Prop44ColorIndex
 90
        5
102
RTVSPost2010Prop44ColorRGB
 90
      255
102
RTVSPost2010PropOp44
 70
     1
102
RTVSPost2010Prop45
280
     0
102
RTVSPost2010PropOp45
 70
     1
102
RTVSPost2010Prop46
 90
       50
102
RTVSPost2010PropOp46
 70
     1
102
RTVSPost2010Prop47
 90
       50
102
RTVSPost2010PropOp47
 70
     1
102
RTVSPost2010Prop48
 90
       50
102
RTVSPost2010PropOp48
 70
     1
102
RTVSPost2010Prop49
280
     0
102
RTVSPost2010PropOp49
 70
     1
102
RTVSPost2010Prop50
 90
       50
102
RTVSPost2010PropOp50
 70
     1
102
RTVSPost2010Prop51ColorIndex
 90
      256
102
RTVSPost2010Prop51ColorRGB
 90
-16777216
102
RTVSPost2010PropOp51
 70
     0
102
RTVSPost2010Prop52
140
1.0
102
RTVSPost2010PropOp52
 70
     0
102
RTVSPost2010Prop53
 90
        2
102
RTVSPost2010PropOp53
 70
     1
102
RTVSPost2010Prop54
  1
strokes_ogs.tif
102
RTVSPost2010PropOp54
 70
     1
102
RTVSPost2010Prop55
280
     0
102
RTVSPost2010PropOp55
 70
     1
102
RTVSPost2010Prop56
140
1.0
102
RTVSPost2010PropOp56
 70
     1
102
RTVSPost2010Prop57
140
1.0
102
RTVSPost2010PropOp57
 70
     1
102
RTVSPropertyOp0
 70
     1
102
RTVSPropertyOp1
 70
     1
102
RTVSPropertyOp2
 70
     1
102
RTVSPropertyOp3
 70
     1
102
RTVSPropertyOp4
 70
     1
102
RTVSPropertyOp5
 70
     1
102
RTVSPropertyOp6
 70
     1
102
RTVSPropertyOp7
 70
     1
102
RTVSPropertyOp8
 70
     1
102
RTVSPropertyOp9
 70
     1
102
RTVSPropertyOp10
 70
     1
102
RTVSPropertyOp11
 70
     1
102
RTVSPropertyOp12
 70
     1
102
RTVSPropertyOp13
 70
     1
102
RTVSPropertyOp14
 70
     1
102
RTVSPropertyOp15
 70
     1
102
RTVSPropertyOp16
 70
     1
102
RTVSPropertyOp17
 70
     1
102
RTVSPropertyOp18
 70
     1
102
RTVSPropertyOp19
 70
     1
102
RTVSPropertyOp20
 70
     1
102
RTVSPropertyOp21
 70
     1
102
RTVSPropertyOp22
 70
     1
102
RTVSPropertyOp23
 70
     1
102
RTVSPropertyOp24
 70
     1
102
RTVSPropertyOp25
 70
     1
102
RTVSPropertyOp26
 70
     1
102
RTVSPropertyOp27
 70
     1
102
RTVSPropertyOp28
 70
     1
102
RTVSPropertyOp29
 70
     1
102
RTVSPropertyOp30
 70
     1
102
RTVSPropertyOp31
 70
     1
102
RTVSPropertyOp32
 70
     1
102
RTVSPropertyOp33
 70
     1
102
RTVSPropertyOp34
 70
     1
102
RTVSPropertyOp35
 70
     1
102
RTVSPropertyOp36
 70
     1
102
RTVSPropertyOp37
 70
     1
102
RTVSPropertyOp38
 70
     1
102
RTVSPropertyOp39
 70
     1
102
RTVSPropertyOp40
 70
     1
102
RTVSPropertyOp41
 70
     1
102
RTVSPropertyOp42
 70
     1
102
RTVSPropertyOp43
 70
     1
102
RTVSPropertyOp44
 70
     1
102
RTVSPropertyOp45
 70
     1
102
RTVSPropertyOp46
 70
     1
102
RTVSPropertyOp47
 70
     1
102
RTVSPropertyOp48
 70
     1
102
RTVSPropertyOp49
 70
     1
102
RTVSPropertyOp50
 70
     1
102
RTVSPropertyOp51
 70
     0
102
RTVSPropertyOp52
 70
     0
102
RTVSPropertyOp53
 70
     1
102
RTVSPropertyOp54
 70
     1
102
RTVSPropertyOp55
 70
     1
102
RTVSPropertyOp56
 70
     1
102
RTVSPropertyOp57
 70
     1
102
RTVSPropertyOp58
 70
     1
102
RTVSPropertyOp59
 70
     1
102
RTVSPropertyOp60
 70
     1
102
RTVSPropertyOp61
 70
     1
102
RTVSPropertyOp62
 70
     1
  0
XRECORD
  5
326
102
{ACAD_REACTORS
330
325
102
}
330
325
100
AcDbXrecord
280
     1
102
RTVSPost2010Prop28
280
     0
102
RTVSPost2010PropOp28
 70
     1
102
RTVSPost2010Prop29
280
     1
102
RTVSPost2010PropOp29
 70
     1
102
RTVSPost2010Prop30
280
     1
102
RTVSPost2010PropOp30
 70
     1
102
RTVSPost2010Prop31
280
     0
102
RTVSPost2010PropOp31
 70
     1
102
RTVSPost2010Prop32
280
     0
102
RTVSPost2010PropOp32
 70
     1
102
RTVSPost2010Prop33
280
     0
102
RTVSPost2010PropOp33
 70
     1
102
RTVSPost2010Prop34
280
     0
102
RTVSPost2010PropOp34
 70
     1
102
RTVSPost2010Prop35
280
     0
102
RTVSPost2010PropOp35
 70
     1
102
RTVSPost2010Prop36
280
     0
102
RTVSPost2010PropOp36
 70
     1
102
RTVSPost2010Prop37
 90
       50
102
RTVSPost2010PropOp37
 70
     1
102
RTVSPost2010Prop38
140
0.0
102
RTVSPost2010PropOp38
 70
     1
102
RTVSPost2010Prop39
140
1.0
102
RTVSPost2010PropOp39
 70
     1
102
RTVSPost2010Prop40
 90
        0
102
RTVSPost2010PropOp40
 70
     1
102
RTVSPost2010Prop41ColorIndex
 90
       18
102
RTVSPost2010Prop41ColorRGB
 90
        0
102
RTVSPost2010PropOp41
 70
     1
102
RTVSPost2010Prop42
 90
       50
102
RTVSPost2010PropOp42
 70
     1
102
RTVSPost2010Prop43
 90
        3
102
RTVSPost2010PropOp43
 70
     1
102
RTVSPost2010Prop44ColorIndex
 90
        5
102
RTVSPost2010Prop44ColorRGB
 90
      255
102
RTVSPost2010PropOp44
 70
     1
102
RTVSPost2010Prop45
280
     0
102
RTVSPost2010PropOp45
 70
     1
102
RTVSPost2010Prop46
 90
       50
102
RTVSPost2010PropOp46
 70
     1
102
RTVSPost2010Prop47
 90
       50
102
RTVSPost2010PropOp47
 70
     1
102
RTVSPost2010Prop48
 90
       50
102
RTVSPost2010PropOp48
 70
     1
102
RTVSPost2010Prop49
280
     0
102
RTVSPost2010PropOp49
 70
     1
102
RTVSPost2010Prop50
 90
       50
102
RTVSPost2010PropOp50
 70
     1
102
RTVSPost2010Prop51ColorIndex
 90
      256
102
RTVSPost2010Prop51ColorRGB
 90
-16777216
102
RTVSPost2010PropOp51
 70
     0
102
RTVSPost2010Prop52
140
1.0
102
RTVSPost2010PropOp52
 70
     0
102
RTVSPost2010Prop53
 90
        2
102
RTVSPost2010PropOp53
 70
     1
102
RTVSPost2010Prop54
  1
strokes_ogs.tif
102
RTVSPost2010PropOp54
 70
     1
102
RTVSPost2010Prop55
280
     0
102
RTVSPost2010PropOp55
 70
     1
102
RTVSPost2010Prop56
140
1.0
102
RTVSPost2010PropOp56
 70
     1
102
RTVSPost2010Prop57
140
1.0
102
RTVSPost2010PropOp57
 70
     1
102
RTVSPropertyOp0
 70
     1
102
RTVSPropertyOp1
 70
     1
102
RTVSPropertyOp2
 70
     1
102
RTVSPropertyOp3
 70
     1
102
RTVSPropertyOp4
 70
     1
102
RTVSPropertyOp5
 70
     1
102
RTVSPropertyOp6
 70
     1
102
RTVSPropertyOp7
 70
     1
102
RTVSPropertyOp8
 70
     1
102
RTVSPropertyOp9
 70
     1
102
RTVSPropertyOp10
 70
     1
102
RTVSPropertyOp11
 70
     1
102
RTVSPropertyOp12
 70
     1
102
RTVSPropertyOp13
 70
     1
102
RTVSPropertyOp14
 70
     1
102
RTVSPropertyOp15
 70
     1
102
RTVSPropertyOp16
 70
     1
102
RTVSPropertyOp17
 70
     1
102
RTVSPropertyOp18
 70
     1
102
RTVSPropertyOp19
 70
     1
102
RTVSPropertyOp20
 70
     1
102
RTVSPropertyOp21
 70
     1
102
RTVSPropertyOp22
 70
     1
102
RTVSPropertyOp23
 70
     1
102
RTVSPropertyOp24
 70
     1
102
RTVSPropertyOp25
 70
     1
102
RTVSPropertyOp26
 70
     1
102
RTVSPropertyOp27
 70
     1
102
RTVSPropertyOp28
 70
     1
102
RTVSPropertyOp29
 70
     1
102
RTVSPropertyOp30
 70
     1
102
RTVSPropertyOp31
 70
     1
102
RTVSPropertyOp32
 70
     1
102
RTVSPropertyOp33
 70
     1
102
RTVSPropertyOp34
 70
     1
102
RTVSPropertyOp35
 70
     1
102
RTVSPropertyOp36
 70
     1
102
RTVSPropertyOp37
 70
     1
102
RTVSPropertyOp38
 70
     1
102
RTVSPropertyOp39
 70
     1
102
RTVSPropertyOp40
 70
     1
102
RTVSPropertyOp41
 70
     1
102
RTVSPropertyOp42
 70
     1
102
RTVSPropertyOp43
 70
     1
102
RTVSPropertyOp44
 70
     1
102
RTVSPropertyOp45
 70
     1
102
RTVSPropertyOp46
 70
     1
102
RTVSPropertyOp47
 70
     1
102
RTVSPropertyOp48
 70
     1
102
RTVSPropertyOp49
 70
     1
102
RTVSPropertyOp50
 70
     1
102
RTVSPropertyOp51
 70
     0
102
RTVSPropertyOp52
 70
     0
102
RTVSPropertyOp53
 70
     1
102
RTVSPropertyOp54
 70
     1
102
RTVSPropertyOp55
 70
     1
102
RTVSPropertyOp56
 70
     1
102
RTVSPropertyOp57
 70
     1
102
RTVSPropertyOp58
 70
     1
102
RTVSPropertyOp59
 70
     1
102
RTVSPropertyOp60
 70
     1
102
RTVSPropertyOp61
 70
     1
102
RTVSPropertyOp62
 70
     1
  0
XRECORD
  5
328
102
{ACAD_REACTORS
330
327
102
}
330
327
100
AcDbXrecord
280
     1
102
RTVSPost2010Prop28
280
     0
102
RTVSPost2010PropOp28
 70
     1
102
RTVSPost2010Prop29
280
     1
102
RTVSPost2010PropOp29
 70
     1
102
RTVSPost2010Prop30
280
     1
102
RTVSPost2010PropOp30
 70
     1
102
RTVSPost2010Prop31
280
     0
102
RTVSPost2010PropOp31
 70
     1
102
RTVSPost2010Prop32
280
     0
102
RTVSPost2010PropOp32
 70
     1
102
RTVSPost2010Prop33
280
     0
102
RTVSPost2010PropOp33
 70
     1
102
RTVSPost2010Prop34
280
     0
102
RTVSPost2010PropOp34
 70
     1
102
RTVSPost2010Prop35
280
     0
102
RTVSPost2010PropOp35
 70
     1
102
RTVSPost2010Prop36
280
     0
102
RTVSPost2010PropOp36
 70
     1
102
RTVSPost2010Prop37
 90
       50
102
RTVSPost2010PropOp37
 70
     1
102
RTVSPost2010Prop38
140
0.0
102
RTVSPost2010PropOp38
 70
     1
102
RTVSPost2010Prop39
140
1.0
102
RTVSPost2010PropOp39
 70
     1
102
RTVSPost2010Prop40
 90
        0
102
RTVSPost2010PropOp40
 70
     1
102
RTVSPost2010Prop41ColorIndex
 90
       18
102
RTVSPost2010Prop41ColorRGB
 90
        0
102
RTVSPost2010PropOp41
 70
     1
102
RTVSPost2010Prop42
 90
       50
102
RTVSPost2010PropOp42
 70
     1
102
RTVSPost2010Prop43
 90
        3
102
RTVSPost2010PropOp43
 70
     1
102
RTVSPost2010Prop44ColorIndex
 90
        5
102
RTVSPost2010Prop44ColorRGB
 90
      255
102
RTVSPost2010PropOp44
 70
     1
102
RTVSPost2010Prop45
280
     0
102
RTVSPost2010PropOp45
 70
     1
102
RTVSPost2010Prop46
 90
       50
102
RTVSPost2010PropOp46
 70
     1
102
RTVSPost2010Prop47
 90
       50
102
RTVSPost2010PropOp47
 70
     1
102
RTVSPost2010Prop48
 90
       50
102
RTVSPost2010PropOp48
 70
     1
102
RTVSPost2010Prop49
280
     0
102
RTVSPost2010PropOp49
 70
     1
102
RTVSPost2010Prop50
 90
       50
102
RTVSPost2010PropOp50
 70
     1
102
RTVSPost2010Prop51ColorIndex
 90
      256
102
RTVSPost2010Prop51ColorRGB
 90
-16777216
102
RTVSPost2010PropOp51
 70
     0
102
RTVSPost2010Prop52
140
1.0
102
RTVSPost2010PropOp52
 70
     0
102
RTVSPost2010Prop53
 90
        2
102
RTVSPost2010PropOp53
 70
     1
102
RTVSPost2010Prop54
  1
strokes_ogs.tif
102
RTVSPost2010PropOp54
 70
     1
102
RTVSPost2010Prop55
280
     0
102
RTVSPost2010PropOp55
 70
     1
102
RTVSPost2010Prop56
140
1.0
102
RTVSPost2010PropOp56
 70
     1
102
RTVSPost2010Prop57
140
1.0
102
RTVSPost2010PropOp57
 70
     1
102
RTVSPropertyOp0
 70
     1
102
RTVSPropertyOp1
 70
     1
102
RTVSPropertyOp2
 70
     1
102
RTVSPropertyOp3
 70
     1
102
RTVSPropertyOp4
 70
     1
102
RTVSPropertyOp5
 70
     1
102
RTVSPropertyOp6
 70
     1
102
RTVSPropertyOp7
 70
     1
102
RTVSPropertyOp8
 70
     1
102
RTVSPropertyOp9
 70
     1
102
RTVSPropertyOp10
 70
     1
102
RTVSPropertyOp11
 70
     1
102
RTVSPropertyOp12
 70
     1
102
RTVSPropertyOp13
 70
     1
102
RTVSPropertyOp14
 70
     1
102
RTVSPropertyOp15
 70
     1
102
RTVSPropertyOp16
 70
     1
102
RTVSPropertyOp17
 70
     1
102
RTVSPropertyOp18
 70
     1
102
RTVSPropertyOp19
 70
     1
102
RTVSPropertyOp20
 70
     1
102
RTVSPropertyOp21
 70
     1
102
RTVSPropertyOp22
 70
     1
102
RTVSPropertyOp23
 70
     1
102
RTVSPropertyOp24
 70
     1
102
RTVSPropertyOp25
 70
     1
102
RTVSPropertyOp26
 70
     1
102
RTVSPropertyOp27
 70
     1
102
RTVSPropertyOp28
 70
     1
102
RTVSPropertyOp29
 70
     1
102
RTVSPropertyOp30
 70
     1
102
RTVSPropertyOp31
 70
     1
102
RTVSPropertyOp32
 70
     1
102
RTVSPropertyOp33
 70
     1
102
RTVSPropertyOp34
 70
     1
102
RTVSPropertyOp35
 70
     1
102
RTVSPropertyOp36
 70
     1
102
RTVSPropertyOp37
 70
     1
102
RTVSPropertyOp38
 70
     1
102
RTVSPropertyOp39
 70
     1
102
RTVSPropertyOp40
 70
     1
102
RTVSPropertyOp41
 70
     1
102
RTVSPropertyOp42
 70
     1
102
RTVSPropertyOp43
 70
     1
102
RTVSPropertyOp44
 70
     1
102
RTVSPropertyOp45
 70
     1
102
RTVSPropertyOp46
 70
     1
102
RTVSPropertyOp47
 70
     1
102
RTVSPropertyOp48
 70
     1
102
RTVSPropertyOp49
 70
     1
102
RTVSPropertyOp50
 70
     1
102
RTVSPropertyOp51
 70
     0
102
RTVSPropertyOp52
 70
     0
102
RTVSPropertyOp53
 70
     1
102
RTVSPropertyOp54
 70
     1
102
RTVSPropertyOp55
 70
     1
102
RTVSPropertyOp56
 70
     1
102
RTVSPropertyOp57
 70
     1
102
RTVSPropertyOp58
 70
     1
102
RTVSPropertyOp59
 70
     1
102
RTVSPropertyOp60
 70
     1
102
RTVSPropertyOp61
 70
     1
102
RTVSPropertyOp62
 70
     1
  0
XRECORD
  5
32A
102
{ACAD_REACTORS
330
329
102
}
330
329
100
AcDbXrecord
280
     1
102
RTVSPost2010Prop28
280
     0
102
RTVSPost2010PropOp28
 70
     1
102
RTVSPost2010Prop29
280
     1
102
RTVSPost2010PropOp29
 70
     1
102
RTVSPost2010Prop30
280
     1
102
RTVSPost2010PropOp30
 70
     1
102
RTVSPost2010Prop31
280
     0
102
RTVSPost2010PropOp31
 70
     1
102
RTVSPost2010Prop32
280
     0
102
RTVSPost2010PropOp32
 70
     1
102
RTVSPost2010Prop33
280
     0
102
RTVSPost2010PropOp33
 70
     1
102
RTVSPost2010Prop34
280
     0
102
RTVSPost2010PropOp34
 70
     1
102
RTVSPost2010Prop35
280
     0
102
RTVSPost2010PropOp35
 70
     1
102
RTVSPost2010Prop36
280
     0
102
RTVSPost2010PropOp36
 70
     1
102
RTVSPost2010Prop37
 90
       50
102
RTVSPost2010PropOp37
 70
     1
102
RTVSPost2010Prop38
140
0.0
102
RTVSPost2010PropOp38
 70
     1
102
RTVSPost2010Prop39
140
1.0
102
RTVSPost2010PropOp39
 70
     1
102
RTVSPost2010Prop40
 90
        0
102
RTVSPost2010PropOp40
 70
     1
102
RTVSPost2010Prop41ColorIndex
 90
       18
102
RTVSPost2010Prop41ColorRGB
 90
        0
102
RTVSPost2010PropOp41
 70
     1
102
RTVSPost2010Prop42
 90
       50
102
RTVSPost2010PropOp42
 70
     1
102
RTVSPost2010Prop43
 90
        3
102
RTVSPost2010PropOp43
 70
     1
102
RTVSPost2010Prop44ColorIndex
 90
        5
102
RTVSPost2010Prop44ColorRGB
 90
      255
102
RTVSPost2010PropOp44
 70
     1
102
RTVSPost2010Prop45
280
     0
102
RTVSPost2010PropOp45
 70
     1
102
RTVSPost2010Prop46
 90
       50
102
RTVSPost2010PropOp46
 70
     1
102
RTVSPost2010Prop47
 90
       50
102
RTVSPost2010PropOp47
 70
     1
102
RTVSPost2010Prop48
 90
       50
102
RTVSPost2010PropOp48
 70
     1
102
RTVSPost2010Prop49
280
     0
102
RTVSPost2010PropOp49
 70
     1
102
RTVSPost2010Prop50
 90
       50
102
RTVSPost2010PropOp50
 70
     1
102
RTVSPost2010Prop51ColorIndex
 90
      256
102
RTVSPost2010Prop51ColorRGB
 90
-16777216
102
RTVSPost2010PropOp51
 70
     0
102
RTVSPost2010Prop52
140
1.0
102
RTVSPost2010PropOp52
 70
     0
102
RTVSPost2010Prop53
 90
        2
102
RTVSPost2010PropOp53
 70
     1
102
RTVSPost2010Prop54
  1
strokes_ogs.tif
102
RTVSPost2010PropOp54
 70
     1
102
RTVSPost2010Prop55
280
     0
102
RTVSPost2010PropOp55
 70
     1
102
RTVSPost2010Prop56
140
1.0
102
RTVSPost2010PropOp56
 70
     1
102
RTVSPost2010Prop57
140
1.0
102
RTVSPost2010PropOp57
 70
     1
102
RTVSPropertyOp0
 70
     1
102
RTVSPropertyOp1
 70
     1
102
RTVSPropertyOp2
 70
     1
102
RTVSPropertyOp3
 70
     1
102
RTVSPropertyOp4
 70
     1
102
RTVSPropertyOp5
 70
     1
102
RTVSPropertyOp6
 70
     1
102
RTVSPropertyOp7
 70
     1
102
RTVSPropertyOp8
 70
     1
102
RTVSPropertyOp9
 70
     1
102
RTVSPropertyOp10
 70
     1
102
RTVSPropertyOp11
 70
     1
102
RTVSPropertyOp12
 70
     1
102
RTVSPropertyOp13
 70
     1
102
RTVSPropertyOp14
 70
     1
102
RTVSPropertyOp15
 70
     1
102
RTVSPropertyOp16
 70
     1
102
RTVSPropertyOp17
 70
     1
102
RTVSPropertyOp18
 70
     1
102
RTVSPropertyOp19
 70
     1
102
RTVSPropertyOp20
 70
     1
102
RTVSPropertyOp21
 70
     1
102
RTVSPropertyOp22
 70
     1
102
RTVSPropertyOp23
 70
     1
102
RTVSPropertyOp24
 70
     1
102
RTVSPropertyOp25
 70
     1
102
RTVSPropertyOp26
 70
     1
102
RTVSPropertyOp27
 70
     1
102
RTVSPropertyOp28
 70
     1
102
RTVSPropertyOp29
 70
     1
102
RTVSPropertyOp30
 70
     1
102
RTVSPropertyOp31
 70
     1
102
RTVSPropertyOp32
 70
     1
102
RTVSPropertyOp33
 70
     1
102
RTVSPropertyOp34
 70
     1
102
RTVSPropertyOp35
 70
     1
102
RTVSPropertyOp36
 70
     1
102
RTVSPropertyOp37
 70
     1
102
RTVSPropertyOp38
 70
     1
102
RTVSPropertyOp39
 70
     1
102
RTVSPropertyOp40
 70
     1
102
RTVSPropertyOp41
 70
     1
102
RTVSPropertyOp42
 70
     1
102
RTVSPropertyOp43
 70
     1
102
RTVSPropertyOp44
 70
     1
102
RTVSPropertyOp45
 70
     1
102
RTVSPropertyOp46
 70
     1
102
RTVSPropertyOp47
 70
     1
102
RTVSPropertyOp48
 70
     1
102
RTVSPropertyOp49
 70
     1
102
RTVSPropertyOp50
 70
     1
102
RTVSPropertyOp51
 70
     0
102
RTVSPropertyOp52
 70
     0
102
RTVSPropertyOp53
 70
     1
102
RTVSPropertyOp54
 70
     1
102
RTVSPropertyOp55
 70
     1
102
RTVSPropertyOp56
 70
     1
102
RTVSPropertyOp57
 70
     1
102
RTVSPropertyOp58
 70
     1
102
RTVSPropertyOp59
 70
     1
102
RTVSPropertyOp60
 70
     1
102
RTVSPropertyOp61
 70
     1
102
RTVSPropertyOp62
 70
     1
  0
XRECORD
  5
32C
102
{ACAD_REACTORS
330
32B
102
}
330
32B
100
AcDbXrecord
280
     1
102
RTVSPost2010Prop28
280
     0
102
RTVSPost2010PropOp28
 70
     1
102
RTVSPost2010Prop29
280
     1
102
RTVSPost2010PropOp29
 70
     1
102
RTVSPost2010Prop30
280
     1
102
RTVSPost2010PropOp30
 70
     1
102
RTVSPost2010Prop31
280
     0
102
RTVSPost2010PropOp31
 70
     1
102
RTVSPost2010Prop32
280
     0
102
RTVSPost2010PropOp32
 70
     1
102
RTVSPost2010Prop33
280
     0
102
RTVSPost2010PropOp33
 70
     1
102
RTVSPost2010Prop34
280
     0
102
RTVSPost2010PropOp34
 70
     1
102
RTVSPost2010Prop35
280
     0
102
RTVSPost2010PropOp35
 70
     1
102
RTVSPost2010Prop36
280
     0
102
RTVSPost2010PropOp36
 70
     1
102
RTVSPost2010Prop37
 90
       50
102
RTVSPost2010PropOp37
 70
     1
102
RTVSPost2010Prop38
140
0.0
102
RTVSPost2010PropOp38
 70
     1
102
RTVSPost2010Prop39
140
1.0
102
RTVSPost2010PropOp39
 70
     1
102
RTVSPost2010Prop40
 90
        0
102
RTVSPost2010PropOp40
 70
     1
102
RTVSPost2010Prop41ColorIndex
 90
       18
102
RTVSPost2010Prop41ColorRGB
 90
        0
102
RTVSPost2010PropOp41
 70
     1
102
RTVSPost2010Prop42
 90
       50
102
RTVSPost2010PropOp42
 70
     1
102
RTVSPost2010Prop43
 90
        3
102
RTVSPost2010PropOp43
 70
     1
102
RTVSPost2010Prop44ColorIndex
 90
        5
102
RTVSPost2010Prop44ColorRGB
 90
      255
102
RTVSPost2010PropOp44
 70
     1
102
RTVSPost2010Prop45
280
     0
102
RTVSPost2010PropOp45
 70
     1
102
RTVSPost2010Prop46
 90
       50
102
RTVSPost2010PropOp46
 70
     1
102
RTVSPost2010Prop47
 90
       50
102
RTVSPost2010PropOp47
 70
     1
102
RTVSPost2010Prop48
 90
       50
102
RTVSPost2010PropOp48
 70
     1
102
RTVSPost2010Prop49
280
     0
102
RTVSPost2010PropOp49
 70
     1
102
RTVSPost2010Prop50
 90
       50
102
RTVSPost2010PropOp50
 70
     1
102
RTVSPost2010Prop51ColorIndex
 90
      256
102
RTVSPost2010Prop51ColorRGB
 90
-16777216
102
RTVSPost2010PropOp51
 70
     0
102
RTVSPost2010Prop52
140
1.0
102
RTVSPost2010PropOp52
 70
     0
102
RTVSPost2010Prop53
 90
        2
102
RTVSPost2010PropOp53
 70
     1
102
RTVSPost2010Prop54
  1
strokes_ogs.tif
102
RTVSPost2010PropOp54
 70
     1
102
RTVSPost2010Prop55
280
     0
102
RTVSPost2010PropOp55
 70
     1
102
RTVSPost2010Prop56
140
1.0
102
RTVSPost2010PropOp56
 70
     1
102
RTVSPost2010Prop57
140
1.0
102
RTVSPost2010PropOp57
 70
     1
102
RTVSPropertyOp0
 70
     1
102
RTVSPropertyOp1
 70
     1
102
RTVSPropertyOp2
 70
     1
102
RTVSPropertyOp3
 70
     1
102
RTVSPropertyOp4
 70
     1
102
RTVSPropertyOp5
 70
     1
102
RTVSPropertyOp6
 70
     1
102
RTVSPropertyOp7
 70
     1
102
RTVSPropertyOp8
 70
     1
102
RTVSPropertyOp9
 70
     1
102
RTVSPropertyOp10
 70
     1
102
RTVSPropertyOp11
 70
     1
102
RTVSPropertyOp12
 70
     1
102
RTVSPropertyOp13
 70
     1
102
RTVSPropertyOp14
 70
     1
102
RTVSPropertyOp15
 70
     1
102
RTVSPropertyOp16
 70
     1
102
RTVSPropertyOp17
 70
     1
102
RTVSPropertyOp18
 70
     1
102
RTVSPropertyOp19
 70
     1
102
RTVSPropertyOp20
 70
     1
102
RTVSPropertyOp21
 70
     1
102
RTVSPropertyOp22
 70
     1
102
RTVSPropertyOp23
 70
     1
102
RTVSPropertyOp24
 70
     1
102
RTVSPropertyOp25
 70
     1
102
RTVSPropertyOp26
 70
     1
102
RTVSPropertyOp27
 70
     1
102
RTVSPropertyOp28
 70
     1
102
RTVSPropertyOp29
 70
     1
102
RTVSPropertyOp30
 70
     1
102
RTVSPropertyOp31
 70
     1
102
RTVSPropertyOp32
 70
     1
102
RTVSPropertyOp33
 70
     1
102
RTVSPropertyOp34
 70
     1
102
RTVSPropertyOp35
 70
     1
102
RTVSPropertyOp36
 70
     1
102
RTVSPropertyOp37
 70
     1
102
RTVSPropertyOp38
 70
     1
102
RTVSPropertyOp39
 70
     1
102
RTVSPropertyOp40
 70
     1
102
RTVSPropertyOp41
 70
     1
102
RTVSPropertyOp42
 70
     1
102
RTVSPropertyOp43
 70
     1
102
RTVSPropertyOp44
 70
     1
102
RTVSPropertyOp45
 70
     1
102
RTVSPropertyOp46
 70
     1
102
RTVSPropertyOp47
 70
     1
102
RTVSPropertyOp48
 70
     1
102
RTVSPropertyOp49
 70
     1
102
RTVSPropertyOp50
 70
     1
102
RTVSPropertyOp51
 70
     0
102
RTVSPropertyOp52
 70
     0
102
RTVSPropertyOp53
 70
     1
102
RTVSPropertyOp54
 70
     1
102
RTVSPropertyOp55
 70
     1
102
RTVSPropertyOp56
 70
     1
102
RTVSPropertyOp57
 70
     1
102
RTVSPropertyOp58
 70
     1
102
RTVSPropertyOp59
 70
     1
102
RTVSPropertyOp60
 70
     1
102
RTVSPropertyOp61
 70
     1
102
RTVSPropertyOp62
 70
     1
  0
XRECORD
  5
334
102
{ACAD_REACTORS
330
333
102
}
330
333
100
AcDbXrecord
280
     1
102
RTVSPost2010Prop28
280
     0
102
RTVSPost2010PropOp28
 70
     1
102
RTVSPost2010Prop29
280
     1
102
RTVSPost2010PropOp29
 70
     1
102
RTVSPost2010Prop30
280
     1
102
RTVSPost2010PropOp30
 70
     1
102
RTVSPost2010Prop31
280
     0
102
RTVSPost2010PropOp31
 70
     1
102
RTVSPost2010Prop32
280
     0
102
RTVSPost2010PropOp32
 70
     1
102
RTVSPost2010Prop33
280
     0
102
RTVSPost2010PropOp33
 70
     1
102
RTVSPost2010Prop34
280
     0
102
RTVSPost2010PropOp34
 70
     1
102
RTVSPost2010Prop35
280
     0
102
RTVSPost2010PropOp35
 70
     1
102
RTVSPost2010Prop36
280
     0
102
RTVSPost2010PropOp36
 70
     1
102
RTVSPost2010Prop37
 90
       50
102
RTVSPost2010PropOp37
 70
     1
102
RTVSPost2010Prop38
140
0.0
102
RTVSPost2010PropOp38
 70
     1
102
RTVSPost2010Prop39
140
1.0
102
RTVSPost2010PropOp39
 70
     1
102
RTVSPost2010Prop40
 90
        0
102
RTVSPost2010PropOp40
 70
     1
102
RTVSPost2010Prop41ColorIndex
 90
       18
102
RTVSPost2010Prop41ColorRGB
 90
        0
102
RTVSPost2010PropOp41
 70
     1
102
RTVSPost2010Prop42
 90
       50
102
RTVSPost2010PropOp42
 70
     1
102
RTVSPost2010Prop43
 90
        3
102
RTVSPost2010PropOp43
 70
     1
102
RTVSPost2010Prop44ColorIndex
 90
        5
102
RTVSPost2010Prop44ColorRGB
 90
      255
102
RTVSPost2010PropOp44
 70
     1
102
RTVSPost2010Prop45
280
     0
102
RTVSPost2010PropOp45
 70
     1
102
RTVSPost2010Prop46
 90
       50
102
RTVSPost2010PropOp46
 70
     1
102
RTVSPost2010Prop47
 90
       50
102
RTVSPost2010PropOp47
 70
     1
102
RTVSPost2010Prop48
 90
       50
102
RTVSPost2010PropOp48
 70
     1
102
RTVSPost2010Prop49
280
     0
102
RTVSPost2010PropOp49
 70
     1
102
RTVSPost2010Prop50
 90
       50
102
RTVSPost2010PropOp50
 70
     1
102
RTVSPost2010Prop51ColorIndex
 90
      256
102
RTVSPost2010Prop51ColorRGB
 90
-16777216
102
RTVSPost2010PropOp51
 70
     0
102
RTVSPost2010Prop52
140
1.0
102
RTVSPost2010PropOp52
 70
     0
102
RTVSPost2010Prop53
 90
        2
102
RTVSPost2010PropOp53
 70
     1
102
RTVSPost2010Prop54
  1
strokes_ogs.tif
102
RTVSPost2010PropOp54
 70
     1
102
RTVSPost2010Prop55
280
     0
102
RTVSPost2010PropOp55
 70
     1
102
RTVSPost2010Prop56
140
1.0
102
RTVSPost2010PropOp56
 70
     1
102
RTVSPost2010Prop57
140
1.0
102
RTVSPost2010PropOp57
 70
     1
102
RTVSPropertyOp0
 70
     1
102
RTVSPropertyOp1
 70
     1
102
RTVSPropertyOp2
 70
     1
102
RTVSPropertyOp3
 70
     1
102
RTVSPropertyOp4
 70
     1
102
RTVSPropertyOp5
 70
     1
102
RTVSPropertyOp6
 70
     1
102
RTVSPropertyOp7
 70
     1
102
RTVSPropertyOp8
 70
     1
102
RTVSPropertyOp9
 70
     1
102
RTVSPropertyOp10
 70
     1
102
RTVSPropertyOp11
 70
     1
102
RTVSPropertyOp12
 70
     1
102
RTVSPropertyOp13
 70
     1
102
RTVSPropertyOp14
 70
     1
102
RTVSPropertyOp15
 70
     1
102
RTVSPropertyOp16
 70
     1
102
RTVSPropertyOp17
 70
     1
102
RTVSPropertyOp18
 70
     1
102
RTVSPropertyOp19
 70
     1
102
RTVSPropertyOp20
 70
     1
102
RTVSPropertyOp21
 70
     1
102
RTVSPropertyOp22
 70
     1
102
RTVSPropertyOp23
 70
     1
102
RTVSPropertyOp24
 70
     1
102
RTVSPropertyOp25
 70
     1
102
RTVSPropertyOp26
 70
     1
102
RTVSPropertyOp27
 70
     1
102
RTVSPropertyOp28
 70
     1
102
RTVSPropertyOp29
 70
     1
102
RTVSPropertyOp30
 70
     1
102
RTVSPropertyOp31
 70
     1
102
RTVSPropertyOp32
 70
     1
102
RTVSPropertyOp33
 70
     1
102
RTVSPropertyOp34
 70
     1
102
RTVSPropertyOp35
 70
     1
102
RTVSPropertyOp36
 70
     1
102
RTVSPropertyOp37
 70
     1
102
RTVSPropertyOp38
 70
     1
102
RTVSPropertyOp39
 70
     1
102
RTVSPropertyOp40
 70
     1
102
RTVSPropertyOp41
 70
     1
102
RTVSPropertyOp42
 70
     1
102
RTVSPropertyOp43
 70
     1
102
RTVSPropertyOp44
 70
     1
102
RTVSPropertyOp45
 70
     1
102
RTVSPropertyOp46
 70
     1
102
RTVSPropertyOp47
 70
     1
102
RTVSPropertyOp48
 70
     1
102
RTVSPropertyOp49
 70
     1
102
RTVSPropertyOp50
 70
     1
102
RTVSPropertyOp51
 70
     0
102
RTVSPropertyOp52
 70
     0
102
RTVSPropertyOp53
 70
     1
102
RTVSPropertyOp54
 70
     1
102
RTVSPropertyOp55
 70
     1
102
RTVSPropertyOp56
 70
     1
102
RTVSPropertyOp57
 70
     1
102
RTVSPropertyOp58
 70
     1
102
RTVSPropertyOp59
 70
     1
102
RTVSPropertyOp60
 70
     1
102
RTVSPropertyOp61
 70
     1
102
RTVSPropertyOp62
 70
     1
  0
XRECORD
  5
350
102
{ACAD_REACTORS
330
34F
102
}
330
34F
100
AcDbXrecord
280
     1
102
RTVSPost2010Prop28
280
     0
102
RTVSPost2010PropOp28
 70
     0
102
RTVSPost2010Prop29
280
     1
102
RTVSPost2010PropOp29
 70
     0
102
RTVSPost2010Prop30
280
     1
102
RTVSPost2010PropOp30
 70
     0
102
RTVSPost2010Prop31
280
     0
102
RTVSPost2010PropOp31
 70
     0
102
RTVSPost2010Prop32
280
     0
102
RTVSPost2010PropOp32
 70
     0
102
RTVSPost2010Prop33
280
     0
102
RTVSPost2010PropOp33
 70
     0
102
RTVSPost2010Prop34
280
     0
102
RTVSPost2010PropOp34
 70
     0
102
RTVSPost2010Prop35
280
     0
102
RTVSPost2010PropOp35
 70
     0
102
RTVSPost2010Prop36
280
     0
102
RTVSPost2010PropOp36
 70
     0
102
RTVSPost2010Prop37
 90
       50
102
RTVSPost2010PropOp37
 70
     0
102
RTVSPost2010Prop38
140
0.0
102
RTVSPost2010PropOp38
 70
     0
102
RTVSPost2010Prop39
140
1.0
102
RTVSPost2010PropOp39
 70
     0
102
RTVSPost2010Prop40
 90
        0
102
RTVSPost2010PropOp40
 70
     0
102
RTVSPost2010Prop41ColorIndex
 90
       18
102
RTVSPost2010Prop41ColorRGB
 90
        0
102
RTVSPost2010PropOp41
 70
     0
102
RTVSPost2010Prop42
 90
       50
102
RTVSPost2010PropOp42
 70
     0
102
RTVSPost2010Prop43
 90
        3
102
RTVSPost2010PropOp43
 70
     0
102
RTVSPost2010Prop44ColorIndex
 90
        5
102
RTVSPost2010Prop44ColorRGB
 90
      255
102
RTVSPost2010PropOp44
 70
     0
102
RTVSPost2010Prop45
280
     0
102
RTVSPost2010PropOp45
 70
     0
102
RTVSPost2010Prop46
 90
       50
102
RTVSPost2010PropOp46
 70
     0
102
RTVSPost2010Prop47
 90
       50
102
RTVSPost2010PropOp47
 70
     0
102
RTVSPost2010Prop48
 90
       50
102
RTVSPost2010PropOp48
 70
     0
102
RTVSPost2010Prop49
280
     0
102
RTVSPost2010PropOp49
 70
     0
102
RTVSPost2010Prop50
 90
       50
102
RTVSPost2010PropOp50
 70
     0
102
RTVSPost2010Prop51ColorIndex
 90
      256
102
RTVSPost2010Prop51ColorRGB
 90
-16777216
102
RTVSPost2010PropOp51
 70
     0
102
RTVSPost2010Prop52
140
1.0
102
RTVSPost2010PropOp52
 70
     0
102
RTVSPost2010Prop53
 90
        2
102
RTVSPost2010PropOp53
 70
     0
102
RTVSPost2010Prop54
  1
strokes_ogs.tif
102
RTVSPost2010PropOp54
 70
     0
102
RTVSPost2010Prop55
280
     0
102
RTVSPost2010PropOp55
 70
     0
102
RTVSPost2010Prop56
140
1.0
102
RTVSPost2010PropOp56
 70
     0
102
RTVSPost2010Prop57
140
1.0
102
RTVSPost2010PropOp57
 70
     0
102
RTVSPropertyOp0
 70
     0
102
RTVSPropertyOp1
 70
     0
102
RTVSPropertyOp2
 70
     0
102
RTVSPropertyOp3
 70
     0
102
RTVSPropertyOp4
 70
     0
102
RTVSPropertyOp5
 70
     0
102
RTVSPropertyOp6
 70
     0
102
RTVSPropertyOp7
 70
     0
102
RTVSPropertyOp8
 70
     0
102
RTVSPropertyOp9
 70
     0
102
RTVSPropertyOp10
 70
     0
102
RTVSPropertyOp11
 70
     0
102
RTVSPropertyOp12
 70
     0
102
RTVSPropertyOp13
 70
     0
102
RTVSPropertyOp14
 70
     2
102
RTVSPropertyOp15
 70
     0
102
RTVSPropertyOp16
 70
     0
102
RTVSPropertyOp17
 70
     0
102
RTVSPropertyOp18
 70
     0
102
RTVSPropertyOp19
 70
     0
102
RTVSPropertyOp20
 70
     0
102
RTVSPropertyOp21
 70
     0
102
RTVSPropertyOp22
 70
     0
102
RTVSPropertyOp23
 70
     0
102
RTVSPropertyOp24
 70
     0
102
RTVSPropertyOp25
 70
     0
102
RTVSPropertyOp26
 70
     0
102
RTVSPropertyOp27
 70
     0
102
RTVSPropertyOp28
 70
     0
102
RTVSPropertyOp29
 70
     0
102
RTVSPropertyOp30
 70
     0
102
RTVSPropertyOp31
 70
     0
102
RTVSPropertyOp32
 70
     0
102
RTVSPropertyOp33
 70
     0
102
RTVSPropertyOp34
 70
     0
102
RTVSPropertyOp35
 70
     0
102
RTVSPropertyOp36
 70
     0
102
RTVSPropertyOp37
 70
     0
102
RTVSPropertyOp38
 70
     0
102
RTVSPropertyOp39
 70
     0
102
RTVSPropertyOp40
 70
     0
102
RTVSPropertyOp41
 70
     0
102
RTVSPropertyOp42
 70
     0
102
RTVSPropertyOp43
 70
     0
102
RTVSPropertyOp44
 70
     0
102
RTVSPropertyOp45
 70
     0
102
RTVSPropertyOp46
 70
     0
102
RTVSPropertyOp47
 70
     0
102
RTVSPropertyOp48
 70
     0
102
RTVSPropertyOp49
 70
     0
102
RTVSPropertyOp50
 70
     0
102
RTVSPropertyOp51
 70
     0
102
RTVSPropertyOp52
 70
     0
102
RTVSPropertyOp53
 70
     0
102
RTVSPropertyOp54
 70
     0
102
RTVSPropertyOp55
 70
     0
102
RTVSPropertyOp56
 70
     0
102
RTVSPropertyOp57
 70
     0
102
RTVSPropertyOp58
 70
     1
102
RTVSPropertyOp59
 70
     1
102
RTVSPropertyOp60
 70
     1
102
RTVSPropertyOp61
 70
     1
102
RTVSPropertyOp62
 70
     1
  0
XRECORD
  5
340
102
{ACAD_REACTORS
330
33F
102
}
330
33F
100
AcDbXrecord
280
     1
102
RTVSPost2010Prop28
280
     0
102
RTVSPost2010PropOp28
 70
     1
102
RTVSPost2010Prop29
280
     1
102
RTVSPost2010PropOp29
 70
     1
102
RTVSPost2010Prop30
280
     1
102
RTVSPost2010PropOp30
 70
     1
102
RTVSPost2010Prop31
280
     0
102
RTVSPost2010PropOp31
 70
     1
102
RTVSPost2010Prop32
280
     0
102
RTVSPost2010PropOp32
 70
     1
102
RTVSPost2010Prop33
280
     0
102
RTVSPost2010PropOp33
 70
     1
102
RTVSPost2010Prop34
280
     0
102
RTVSPost2010PropOp34
 70
     1
102
RTVSPost2010Prop35
280
     0
102
RTVSPost2010PropOp35
 70
     1
102
RTVSPost2010Prop36
280
     0
102
RTVSPost2010PropOp36
 70
     1
102
RTVSPost2010Prop37
 90
       50
102
RTVSPost2010PropOp37
 70
     1
102
RTVSPost2010Prop38
140
0.0
102
RTVSPost2010PropOp38
 70
     1
102
RTVSPost2010Prop39
140
1.0
102
RTVSPost2010PropOp39
 70
     1
102
RTVSPost2010Prop40
 90
        0
102
RTVSPost2010PropOp40
 70
     1
102
RTVSPost2010Prop41ColorIndex
 90
       18
102
RTVSPost2010Prop41ColorRGB
 90
        0
102
RTVSPost2010PropOp41
 70
     1
102
RTVSPost2010Prop42
 90
       50
102
RTVSPost2010PropOp42
 70
     1
102
RTVSPost2010Prop43
 90
        3
102
RTVSPost2010PropOp43
 70
     1
102
RTVSPost2010Prop44ColorIndex
 90
        5
102
RTVSPost2010Prop44ColorRGB
 90
      255
102
RTVSPost2010PropOp44
 70
     1
102
RTVSPost2010Prop45
280
     0
102
RTVSPost2010PropOp45
 70
     1
102
RTVSPost2010Prop46
 90
       50
102
RTVSPost2010PropOp46
 70
     1
102
RTVSPost2010Prop47
 90
       50
102
RTVSPost2010PropOp47
 70
     1
102
RTVSPost2010Prop48
 90
       50
102
RTVSPost2010PropOp48
 70
     1
102
RTVSPost2010Prop49
280
     0
102
RTVSPost2010PropOp49
 70
     1
102
RTVSPost2010Prop50
 90
       50
102
RTVSPost2010PropOp50
 70
     1
102
RTVSPost2010Prop51ColorIndex
 90
      256
102
RTVSPost2010Prop51ColorRGB
 90
-16777216
102
RTVSPost2010PropOp51
 70
     0
102
RTVSPost2010Prop52
140
1.0
102
RTVSPost2010PropOp52
 70
     0
102
RTVSPost2010Prop53
 90
        2
102
RTVSPost2010PropOp53
 70
     1
102
RTVSPost2010Prop54
  1
strokes_ogs.tif
102
RTVSPost2010PropOp54
 70
     1
102
RTVSPost2010Prop55
280
     0
102
RTVSPost2010PropOp55
 70
     1
102
RTVSPost2010Prop56
140
1.0
102
RTVSPost2010PropOp56
 70
     1
102
RTVSPost2010Prop57
140
1.0
102
RTVSPost2010PropOp57
 70
     1
102
RTVSPropertyOp0
 70
     1
102
RTVSPropertyOp1
 70
     1
102
RTVSPropertyOp2
 70
     1
102
RTVSPropertyOp3
 70
     1
102
RTVSPropertyOp4
 70
     1
102
RTVSPropertyOp5
 70
     1
102
RTVSPropertyOp6
 70
     1
102
RTVSPropertyOp7
 70
     1
102
RTVSPropertyOp8
 70
     1
102
RTVSPropertyOp9
 70
     1
102
RTVSPropertyOp10
 70
     1
102
RTVSPropertyOp11
 70
     1
102
RTVSPropertyOp12
 70
     1
102
RTVSPropertyOp13
 70
     1
102
RTVSPropertyOp14
 70
     1
102
RTVSPropertyOp15
 70
     1
102
RTVSPropertyOp16
 70
     1
102
RTVSPropertyOp17
 70
     1
102
RTVSPropertyOp18
 70
     1
102
RTVSPropertyOp19
 70
     1
102
RTVSPropertyOp20
 70
     1
102
RTVSPropertyOp21
 70
     1
102
RTVSPropertyOp22
 70
     1
102
RTVSPropertyOp23
 70
     1
102
RTVSPropertyOp24
 70
     1
102
RTVSPropertyOp25
 70
     1
102
RTVSPropertyOp26
 70
     1
102
RTVSPropertyOp27
 70
     1
102
RTVSPropertyOp28
 70
     1
102
RTVSPropertyOp29
 70
     1
102
RTVSPropertyOp30
 70
     1
102
RTVSPropertyOp31
 70
     1
102
RTVSPropertyOp32
 70
     1
102
RTVSPropertyOp33
 70
     1
102
RTVSPropertyOp34
 70
     1
102
RTVSPropertyOp35
 70
     1
102
RTVSPropertyOp36
 70
     1
102
RTVSPropertyOp37
 70
     1
102
RTVSPropertyOp38
 70
     1
102
RTVSPropertyOp39
 70
     1
102
RTVSPropertyOp40
 70
     1
102
RTVSPropertyOp41
 70
     1
102
RTVSPropertyOp42
 70
     1
102
RTVSPropertyOp43
 70
     1
102
RTVSPropertyOp44
 70
     1
102
RTVSPropertyOp45
 70
     1
102
RTVSPropertyOp46
 70
     1
102
RTVSPropertyOp47
 70
     1
102
RTVSPropertyOp48
 70
     1
102
RTVSPropertyOp49
 70
     1
102
RTVSPropertyOp50
 70
     1
102
RTVSPropertyOp51
 70
     0
102
RTVSPropertyOp52
 70
     0
102
RTVSPropertyOp53
 70
     1
102
RTVSPropertyOp54
 70
     1
102
RTVSPropertyOp55
 70
     1
102
RTVSPropertyOp56
 70
     1
102
RTVSPropertyOp57
 70
     1
102
RTVSPropertyOp58
 70
     1
102
RTVSPropertyOp59
 70
     1
102
RTVSPropertyOp60
 70
     1
102
RTVSPropertyOp61
 70
     1
102
RTVSPropertyOp62
 70
     1
  0
XRECORD
  5
352
102
{ACAD_REACTORS
330
351
102
}
330
351
100
AcDbXrecord
280
     1
102
RTVSPost2010Prop28
280
     0
102
RTVSPost2010PropOp28
 70
     0
102
RTVSPost2010Prop29
280
     1
102
RTVSPost2010PropOp29
 70
     0
102
RTVSPost2010Prop30
280
     1
102
RTVSPost2010PropOp30
 70
     0
102
RTVSPost2010Prop31
280
     0
102
RTVSPost2010PropOp31
 70
     0
102
RTVSPost2010Prop32
280
     0
102
RTVSPost2010PropOp32
 70
     0
102
RTVSPost2010Prop33
280
     0
102
RTVSPost2010PropOp33
 70
     0
102
RTVSPost2010Prop34
280
     0
102
RTVSPost2010PropOp34
 70
     0
102
RTVSPost2010Prop35
280
     0
102
RTVSPost2010PropOp35
 70
     0
102
RTVSPost2010Prop36
280
     0
102
RTVSPost2010PropOp36
 70
     0
102
RTVSPost2010Prop37
 90
       50
102
RTVSPost2010PropOp37
 70
     0
102
RTVSPost2010Prop38
140
0.0
102
RTVSPost2010PropOp38
 70
     0
102
RTVSPost2010Prop39
140
1.0
102
RTVSPost2010PropOp39
 70
     0
102
RTVSPost2010Prop40
 90
        0
102
RTVSPost2010PropOp40
 70
     0
102
RTVSPost2010Prop41ColorIndex
 90
       18
102
RTVSPost2010Prop41ColorRGB
 90
        0
102
RTVSPost2010PropOp41
 70
     0
102
RTVSPost2010Prop42
 90
       50
102
RTVSPost2010PropOp42
 70
     0
102
RTVSPost2010Prop43
 90
        3
102
RTVSPost2010PropOp43
 70
     0
102
RTVSPost2010Prop44ColorIndex
 90
        5
102
RTVSPost2010Prop44ColorRGB
 90
      255
102
RTVSPost2010PropOp44
 70
     0
102
RTVSPost2010Prop45
280
     0
102
RTVSPost2010PropOp45
 70
     0
102
RTVSPost2010Prop46
 90
       50
102
RTVSPost2010PropOp46
 70
     0
102
RTVSPost2010Prop47
 90
       50
102
RTVSPost2010PropOp47
 70
     0
102
RTVSPost2010Prop48
 90
       50
102
RTVSPost2010PropOp48
 70
     0
102
RTVSPost2010Prop49
280
     0
102
RTVSPost2010PropOp49
 70
     0
102
RTVSPost2010Prop50
 90
       50
102
RTVSPost2010PropOp50
 70
     0
102
RTVSPost2010Prop51ColorIndex
 90
      256
102
RTVSPost2010Prop51ColorRGB
 90
-16777216
102
RTVSPost2010PropOp51
 70
     0
102
RTVSPost2010Prop52
140
1.0
102
RTVSPost2010PropOp52
 70
     0
102
RTVSPost2010Prop53
 90
        2
102
RTVSPost2010PropOp53
 70
     0
102
RTVSPost2010Prop54
  1
strokes_ogs.tif
102
RTVSPost2010PropOp54
 70
     0
102
RTVSPost2010Prop55
280
     0
102
RTVSPost2010PropOp55
 70
     0
102
RTVSPost2010Prop56
140
1.0
102
RTVSPost2010PropOp56
 70
     0
102
RTVSPost2010Prop57
140
1.0
102
RTVSPost2010PropOp57
 70
     0
102
RTVSPropertyOp0
 70
     0
102
RTVSPropertyOp1
 70
     0
102
RTVSPropertyOp2
 70
     0
102
RTVSPropertyOp3
 70
     0
102
RTVSPropertyOp4
 70
     0
102
RTVSPropertyOp5
 70
     0
102
RTVSPropertyOp6
 70
     0
102
RTVSPropertyOp7
 70
     0
102
RTVSPropertyOp8
 70
     0
102
RTVSPropertyOp9
 70
     0
102
RTVSPropertyOp10
 70
     0
102
RTVSPropertyOp11
 70
     0
102
RTVSPropertyOp12
 70
     0
102
RTVSPropertyOp13
 70
     0
102
RTVSPropertyOp14
 70
     2
102
RTVSPropertyOp15
 70
     0
102
RTVSPropertyOp16
 70
     0
102
RTVSPropertyOp17
 70
     0
102
RTVSPropertyOp18
 70
     0
102
RTVSPropertyOp19
 70
     0
102
RTVSPropertyOp20
 70
     0
102
RTVSPropertyOp21
 70
     0
102
RTVSPropertyOp22
 70
     0
102
RTVSPropertyOp23
 70
     0
102
RTVSPropertyOp24
 70
     0
102
RTVSPropertyOp25
 70
     0
102
RTVSPropertyOp26
 70
     0
102
RTVSPropertyOp27
 70
     0
102
RTVSPropertyOp28
 70
     0
102
RTVSPropertyOp29
 70
     0
102
RTVSPropertyOp30
 70
     0
102
RTVSPropertyOp31
 70
     0
102
RTVSPropertyOp32
 70
     0
102
RTVSPropertyOp33
 70
     0
102
RTVSPropertyOp34
 70
     0
102
RTVSPropertyOp35
 70
     0
102
RTVSPropertyOp36
 70
     0
102
RTVSPropertyOp37
 70
     0
102
RTVSPropertyOp38
 70
     0
102
RTVSPropertyOp39
 70
     0
102
RTVSPropertyOp40
 70
     0
102
RTVSPropertyOp41
 70
     0
102
RTVSPropertyOp42
 70
     0
102
RTVSPropertyOp43
 70
     0
102
RTVSPropertyOp44
 70
     0
102
RTVSPropertyOp45
 70
     0
102
RTVSPropertyOp46
 70
     0
102
RTVSPropertyOp47
 70
     0
102
RTVSPropertyOp48
 70
     0
102
RTVSPropertyOp49
 70
     0
102
RTVSPropertyOp50
 70
     0
102
RTVSPropertyOp51
 70
     0
102
RTVSPropertyOp52
 70
     0
102
RTVSPropertyOp53
 70
     0
102
RTVSPropertyOp54
 70
     0
102
RTVSPropertyOp55
 70
     0
102
RTVSPropertyOp56
 70
     0
102
RTVSPropertyOp57
 70
     0
102
RTVSPropertyOp58
 70
     1
102
RTVSPropertyOp59
 70
     1
102
RTVSPropertyOp60
 70
     1
102
RTVSPropertyOp61
 70
     1
102
RTVSPropertyOp62
 70
     1
  0
XRECORD
  5
338
102
{ACAD_REACTORS
330
337
102
}
330
337
100
AcDbXrecord
280
     1
102
RTVSPost2010Prop28
280
     0
102
RTVSPost2010PropOp28
 70
     1
102
RTVSPost2010Prop29
280
     1
102
RTVSPost2010PropOp29
 70
     1
102
RTVSPost2010Prop30
280
     1
102
RTVSPost2010PropOp30
 70
     1
102
RTVSPost2010Prop31
280
     0
102
RTVSPost2010PropOp31
 70
     1
102
RTVSPost2010Prop32
280
     0
102
RTVSPost2010PropOp32
 70
     1
102
RTVSPost2010Prop33
280
     0
102
RTVSPost2010PropOp33
 70
     1
102
RTVSPost2010Prop34
280
     0
102
RTVSPost2010PropOp34
 70
     1
102
RTVSPost2010Prop35
280
     0
102
RTVSPost2010PropOp35
 70
     1
102
RTVSPost2010Prop36
280
     0
102
RTVSPost2010PropOp36
 70
     1
102
RTVSPost2010Prop37
 90
       50
102
RTVSPost2010PropOp37
 70
     1
102
RTVSPost2010Prop38
140
0.0
102
RTVSPost2010PropOp38
 70
     1
102
RTVSPost2010Prop39
140
1.0
102
RTVSPost2010PropOp39
 70
     1
102
RTVSPost2010Prop40
 90
        0
102
RTVSPost2010PropOp40
 70
     1
102
RTVSPost2010Prop41ColorIndex
 90
       18
102
RTVSPost2010Prop41ColorRGB
 90
        0
102
RTVSPost2010PropOp41
 70
     1
102
RTVSPost2010Prop42
 90
       50
102
RTVSPost2010PropOp42
 70
     1
102
RTVSPost2010Prop43
 90
        3
102
RTVSPost2010PropOp43
 70
     1
102
RTVSPost2010Prop44ColorIndex
 90
        5
102
RTVSPost2010Prop44ColorRGB
 90
      255
102
RTVSPost2010PropOp44
 70
     1
102
RTVSPost2010Prop45
280
     0
102
RTVSPost2010PropOp45
 70
     1
102
RTVSPost2010Prop46
 90
       50
102
RTVSPost2010PropOp46
 70
     1
102
RTVSPost2010Prop47
 90
       50
102
RTVSPost2010PropOp47
 70
     1
102
RTVSPost2010Prop48
 90
       50
102
RTVSPost2010PropOp48
 70
     1
102
RTVSPost2010Prop49
280
     0
102
RTVSPost2010PropOp49
 70
     1
102
RTVSPost2010Prop50
 90
       50
102
RTVSPost2010PropOp50
 70
     1
102
RTVSPost2010Prop51ColorIndex
 90
      256
102
RTVSPost2010Prop51ColorRGB
 90
-16777216
102
RTVSPost2010PropOp51
 70
     0
102
RTVSPost2010Prop52
140
1.0
102
RTVSPost2010PropOp52
 70
     0
102
RTVSPost2010Prop53
 90
        2
102
RTVSPost2010PropOp53
 70
     1
102
RTVSPost2010Prop54
  1
strokes_ogs.tif
102
RTVSPost2010PropOp54
 70
     1
102
RTVSPost2010Prop55
280
     0
102
RTVSPost2010PropOp55
 70
     1
102
RTVSPost2010Prop56
140
1.0
102
RTVSPost2010PropOp56
 70
     1
102
RTVSPost2010Prop57
140
1.0
102
RTVSPost2010PropOp57
 70
     1
102
RTVSPropertyOp0
 70
     1
102
RTVSPropertyOp1
 70
     1
102
RTVSPropertyOp2
 70
     1
102
RTVSPropertyOp3
 70
     1
102
RTVSPropertyOp4
 70
     1
102
RTVSPropertyOp5
 70
     1
102
RTVSPropertyOp6
 70
     1
102
RTVSPropertyOp7
 70
     1
102
RTVSPropertyOp8
 70
     1
102
RTVSPropertyOp9
 70
     1
102
RTVSPropertyOp10
 70
     1
102
RTVSPropertyOp11
 70
     1
102
RTVSPropertyOp12
 70
     1
102
RTVSPropertyOp13
 70
     1
102
RTVSPropertyOp14
 70
     1
102
RTVSPropertyOp15
 70
     1
102
RTVSPropertyOp16
 70
     1
102
RTVSPropertyOp17
 70
     1
102
RTVSPropertyOp18
 70
     1
102
RTVSPropertyOp19
 70
     1
102
RTVSPropertyOp20
 70
     1
102
RTVSPropertyOp21
 70
     1
102
RTVSPropertyOp22
 70
     1
102
RTVSPropertyOp23
 70
     1
102
RTVSPropertyOp24
 70
     1
102
RTVSPropertyOp25
 70
     1
102
RTVSPropertyOp26
 70
     1
102
RTVSPropertyOp27
 70
     1
102
RTVSPropertyOp28
 70
     1
102
RTVSPropertyOp29
 70
     1
102
RTVSPropertyOp30
 70
     1
102
RTVSPropertyOp31
 70
     1
102
RTVSPropertyOp32
 70
     1
102
RTVSPropertyOp33
 70
     1
102
RTVSPropertyOp34
 70
     1
102
RTVSPropertyOp35
 70
     1
102
RTVSPropertyOp36
 70
     1
102
RTVSPropertyOp37
 70
     1
102
RTVSPropertyOp38
 70
     1
102
RTVSPropertyOp39
 70
     1
102
RTVSPropertyOp40
 70
     1
102
RTVSPropertyOp41
 70
     1
102
RTVSPropertyOp42
 70
     1
102
RTVSPropertyOp43
 70
     1
102
RTVSPropertyOp44
 70
     1
102
RTVSPropertyOp45
 70
     1
102
RTVSPropertyOp46
 70
     1
102
RTVSPropertyOp47
 70
     1
102
RTVSPropertyOp48
 70
     1
102
RTVSPropertyOp49
 70
     1
102
RTVSPropertyOp50
 70
     1
102
RTVSPropertyOp51
 70
     0
102
RTVSPropertyOp52
 70
     0
102
RTVSPropertyOp53
 70
     1
102
RTVSPropertyOp54
 70
     1
102
RTVSPropertyOp55
 70
     1
102
RTVSPropertyOp56
 70
     1
102
RTVSPropertyOp57
 70
     1
102
RTVSPropertyOp58
 70
     1
102
RTVSPropertyOp59
 70
     1
102
RTVSPropertyOp60
 70
     1
102
RTVSPropertyOp61
 70
     1
102
RTVSPropertyOp62
 70
     1
  0
XRECORD
  5
34E
102
{ACAD_REACTORS
330
34D
102
}
330
34D
100
AcDbXrecord
280
     1
102
RTVSPost2010Prop28
280
     0
102
RTVSPost2010PropOp28
 70
     1
102
RTVSPost2010Prop29
280
     1
102
RTVSPost2010PropOp29
 70
     1
102
RTVSPost2010Prop30
280
     1
102
RTVSPost2010PropOp30
 70
     1
102
RTVSPost2010Prop31
280
     0
102
RTVSPost2010PropOp31
 70
     1
102
RTVSPost2010Prop32
280
     0
102
RTVSPost2010PropOp32
 70
     1
102
RTVSPost2010Prop33
280
     0
102
RTVSPost2010PropOp33
 70
     1
102
RTVSPost2010Prop34
280
     0
102
RTVSPost2010PropOp34
 70
     1
102
RTVSPost2010Prop35
280
     0
102
RTVSPost2010PropOp35
 70
     1
102
RTVSPost2010Prop36
280
     0
102
RTVSPost2010PropOp36
 70
     1
102
RTVSPost2010Prop37
 90
       50
102
RTVSPost2010PropOp37
 70
     1
102
RTVSPost2010Prop38
140
0.0
102
RTVSPost2010PropOp38
 70
     1
102
RTVSPost2010Prop39
140
1.0
102
RTVSPost2010PropOp39
 70
     1
102
RTVSPost2010Prop40
 90
        0
102
RTVSPost2010PropOp40
 70
     1
102
RTVSPost2010Prop41ColorIndex
 90
       18
102
RTVSPost2010Prop41ColorRGB
 90
        0
102
RTVSPost2010PropOp41
 70
     1
102
RTVSPost2010Prop42
 90
       50
102
RTVSPost2010PropOp42
 70
     1
102
RTVSPost2010Prop43
 90
        3
102
RTVSPost2010PropOp43
 70
     1
102
RTVSPost2010Prop44ColorIndex
 90
        5
102
RTVSPost2010Prop44ColorRGB
 90
      255
102
RTVSPost2010PropOp44
 70
     1
102
RTVSPost2010Prop45
280
     0
102
RTVSPost2010PropOp45
 70
     1
102
RTVSPost2010Prop46
 90
       50
102
RTVSPost2010PropOp46
 70
     1
102
RTVSPost2010Prop47
 90
       50
102
RTVSPost2010PropOp47
 70
     1
102
RTVSPost2010Prop48
 90
       50
102
RTVSPost2010PropOp48
 70
     1
102
RTVSPost2010Prop49
280
     0
102
RTVSPost2010PropOp49
 70
     1
102
RTVSPost2010Prop50
 90
       50
102
RTVSPost2010PropOp50
 70
     1
102
RTVSPost2010Prop51ColorIndex
 90
      256
102
RTVSPost2010Prop51ColorRGB
 90
-16777216
102
RTVSPost2010PropOp51
 70
     0
102
RTVSPost2010Prop52
140
1.0
102
RTVSPost2010PropOp52
 70
     0
102
RTVSPost2010Prop53
 90
        2
102
RTVSPost2010PropOp53
 70
     1
102
RTVSPost2010Prop54
  1
strokes_ogs.tif
102
RTVSPost2010PropOp54
 70
     1
102
RTVSPost2010Prop55
280
     0
102
RTVSPost2010PropOp55
 70
     1
102
RTVSPost2010Prop56
140
1.0
102
RTVSPost2010PropOp56
 70
     1
102
RTVSPost2010Prop57
140
1.0
102
RTVSPost2010PropOp57
 70
     1
102
RTVSPropertyOp0
 70
     1
102
RTVSPropertyOp1
 70
     1
102
RTVSPropertyOp2
 70
     1
102
RTVSPropertyOp3
 70
     1
102
RTVSPropertyOp4
 70
     1
102
RTVSPropertyOp5
 70
     1
102
RTVSPropertyOp6
 70
     1
102
RTVSPropertyOp7
 70
     1
102
RTVSPropertyOp8
 70
     1
102
RTVSPropertyOp9
 70
     1
102
RTVSPropertyOp10
 70
     1
102
RTVSPropertyOp11
 70
     1
102
RTVSPropertyOp12
 70
     1
102
RTVSPropertyOp13
 70
     1
102
RTVSPropertyOp14
 70
     1
102
RTVSPropertyOp15
 70
     1
102
RTVSPropertyOp16
 70
     1
102
RTVSPropertyOp17
 70
     1
102
RTVSPropertyOp18
 70
     1
102
RTVSPropertyOp19
 70
     1
102
RTVSPropertyOp20
 70
     1
102
RTVSPropertyOp21
 70
     1
102
RTVSPropertyOp22
 70
     1
102
RTVSPropertyOp23
 70
     1
102
RTVSPropertyOp24
 70
     1
102
RTVSPropertyOp25
 70
     1
102
RTVSPropertyOp26
 70
     1
102
RTVSPropertyOp27
 70
     1
102
RTVSPropertyOp28
 70
     1
102
RTVSPropertyOp29
 70
     1
102
RTVSPropertyOp30
 70
     1
102
RTVSPropertyOp31
 70
     1
102
RTVSPropertyOp32
 70
     1
102
RTVSPropertyOp33
 70
     1
102
RTVSPropertyOp34
 70
     1
102
RTVSPropertyOp35
 70
     1
102
RTVSPropertyOp36
 70
     1
102
RTVSPropertyOp37
 70
     1
102
RTVSPropertyOp38
 70
     1
102
RTVSPropertyOp39
 70
     1
102
RTVSPropertyOp40
 70
     1
102
RTVSPropertyOp41
 70
     1
102
RTVSPropertyOp42
 70
     1
102
RTVSPropertyOp43
 70
     1
102
RTVSPropertyOp44
 70
     1
102
RTVSPropertyOp45
 70
     1
102
RTVSPropertyOp46
 70
     1
102
RTVSPropertyOp47
 70
     1
102
RTVSPropertyOp48
 70
     1
102
RTVSPropertyOp49
 70
     1
102
RTVSPropertyOp50
 70
     1
102
RTVSPropertyOp51
 70
     0
102
RTVSPropertyOp52
 70
     0
102
RTVSPropertyOp53
 70
     1
102
RTVSPropertyOp54
 70
     1
102
RTVSPropertyOp55
 70
     1
102
RTVSPropertyOp56
 70
     1
102
RTVSPropertyOp57
 70
     1
102
RTVSPropertyOp58
 70
     1
102
RTVSPropertyOp59
 70
     1
102
RTVSPropertyOp60
 70
     1
102
RTVSPropertyOp61
 70
     1
102
RTVSPropertyOp62
 70
     1
  0
XRECORD
  5
34C
102
{ACAD_REACTORS
330
34B
102
}
330
34B
100
AcDbXrecord
280
     1
102
RTVSPost2010Prop28
280
     0
102
RTVSPost2010PropOp28
 70
     1
102
RTVSPost2010Prop29
280
     1
102
RTVSPost2010PropOp29
 70
     1
102
RTVSPost2010Prop30
280
     1
102
RTVSPost2010PropOp30
 70
     1
102
RTVSPost2010Prop31
280
     0
102
RTVSPost2010PropOp31
 70
     1
102
RTVSPost2010Prop32
280
     0
102
RTVSPost2010PropOp32
 70
     1
102
RTVSPost2010Prop33
280
     0
102
RTVSPost2010PropOp33
 70
     1
102
RTVSPost2010Prop34
280
     0
102
RTVSPost2010PropOp34
 70
     1
102
RTVSPost2010Prop35
280
     0
102
RTVSPost2010PropOp35
 70
     1
102
RTVSPost2010Prop36
280
     0
102
RTVSPost2010PropOp36
 70
     1
102
RTVSPost2010Prop37
 90
       50
102
RTVSPost2010PropOp37
 70
     1
102
RTVSPost2010Prop38
140
0.0
102
RTVSPost2010PropOp38
 70
     1
102
RTVSPost2010Prop39
140
1.0
102
RTVSPost2010PropOp39
 70
     1
102
RTVSPost2010Prop40
 90
        0
102
RTVSPost2010PropOp40
 70
     1
102
RTVSPost2010Prop41ColorIndex
 90
       18
102
RTVSPost2010Prop41ColorRGB
 90
        0
102
RTVSPost2010PropOp41
 70
     1
102
RTVSPost2010Prop42
 90
       50
102
RTVSPost2010PropOp42
 70
     1
102
RTVSPost2010Prop43
 90
        3
102
RTVSPost2010PropOp43
 70
     1
102
RTVSPost2010Prop44ColorIndex
 90
        5
102
RTVSPost2010Prop44ColorRGB
 90
      255
102
RTVSPost2010PropOp44
 70
     1
102
RTVSPost2010Prop45
280
     0
102
RTVSPost2010PropOp45
 70
     1
102
RTVSPost2010Prop46
 90
       50
102
RTVSPost2010PropOp46
 70
     1
102
RTVSPost2010Prop47
 90
       50
102
RTVSPost2010PropOp47
 70
     1
102
RTVSPost2010Prop48
 90
       50
102
RTVSPost2010PropOp48
 70
     1
102
RTVSPost2010Prop49
280
     0
102
RTVSPost2010PropOp49
 70
     1
102
RTVSPost2010Prop50
 90
       50
102
RTVSPost2010PropOp50
 70
     1
102
RTVSPost2010Prop51ColorIndex
 90
      256
102
RTVSPost2010Prop51ColorRGB
 90
-16777216
102
RTVSPost2010PropOp51
 70
     0
102
RTVSPost2010Prop52
140
1.0
102
RTVSPost2010PropOp52
 70
     0
102
RTVSPost2010Prop53
 90
        2
102
RTVSPost2010PropOp53
 70
     1
102
RTVSPost2010Prop54
  1
strokes_ogs.tif
102
RTVSPost2010PropOp54
 70
     1
102
RTVSPost2010Prop55
280
     0
102
RTVSPost2010PropOp55
 70
     1
102
RTVSPost2010Prop56
140
1.0
102
RTVSPost2010PropOp56
 70
     1
102
RTVSPost2010Prop57
140
1.0
102
RTVSPost2010PropOp57
 70
     1
102
RTVSPropertyOp0
 70
     1
102
RTVSPropertyOp1
 70
     1
102
RTVSPropertyOp2
 70
     1
102
RTVSPropertyOp3
 70
     1
102
RTVSPropertyOp4
 70
     1
102
RTVSPropertyOp5
 70
     1
102
RTVSPropertyOp6
 70
     1
102
RTVSPropertyOp7
 70
     1
102
RTVSPropertyOp8
 70
     1
102
RTVSPropertyOp9
 70
     1
102
RTVSPropertyOp10
 70
     1
102
RTVSPropertyOp11
 70
     1
102
RTVSPropertyOp12
 70
     1
102
RTVSPropertyOp13
 70
     1
102
RTVSPropertyOp14
 70
     1
102
RTVSPropertyOp15
 70
     1
102
RTVSPropertyOp16
 70
     1
102
RTVSPropertyOp17
 70
     1
102
RTVSPropertyOp18
 70
     1
102
RTVSPropertyOp19
 70
     1
102
RTVSPropertyOp20
 70
     1
102
RTVSPropertyOp21
 70
     1
102
RTVSPropertyOp22
 70
     1
102
RTVSPropertyOp23
 70
     1
102
RTVSPropertyOp24
 70
     1
102
RTVSPropertyOp25
 70
     1
102
RTVSPropertyOp26
 70
     1
102
RTVSPropertyOp27
 70
     1
102
RTVSPropertyOp28
 70
     1
102
RTVSPropertyOp29
 70
     1
102
RTVSPropertyOp30
 70
     1
102
RTVSPropertyOp31
 70
     1
102
RTVSPropertyOp32
 70
     1
102
RTVSPropertyOp33
 70
     1
102
RTVSPropertyOp34
 70
     1
102
RTVSPropertyOp35
 70
     1
102
RTVSPropertyOp36
 70
     1
102
RTVSPropertyOp37
 70
     1
102
RTVSPropertyOp38
 70
     1
102
RTVSPropertyOp39
 70
     1
102
RTVSPropertyOp40
 70
     1
102
RTVSPropertyOp41
 70
     1
102
RTVSPropertyOp42
 70
     1
102
RTVSPropertyOp43
 70
     1
102
RTVSPropertyOp44
 70
     1
102
RTVSPropertyOp45
 70
     1
102
RTVSPropertyOp46
 70
     1
102
RTVSPropertyOp47
 70
     1
102
RTVSPropertyOp48
 70
     1
102
RTVSPropertyOp49
 70
     1
102
RTVSPropertyOp50
 70
     1
102
RTVSPropertyOp51
 70
     0
102
RTVSPropertyOp52
 70
     0
102
RTVSPropertyOp53
 70
     1
102
RTVSPropertyOp54
 70
     1
102
RTVSPropertyOp55
 70
     1
102
RTVSPropertyOp56
 70
     1
102
RTVSPropertyOp57
 70
     1
102
RTVSPropertyOp58
 70
     1
102
RTVSPropertyOp59
 70
     1
102
RTVSPropertyOp60
 70
     1
102
RTVSPropertyOp61
 70
     1
102
RTVSPropertyOp62
 70
     1
  0
XRECORD
  5
346
102
{ACAD_REACTORS
330
345
102
}
330
345
100
AcDbXrecord
280
     1
102
RTVSPost2010Prop28
280
     0
102
RTVSPost2010PropOp28
 70
     1
102
RTVSPost2010Prop29
280
     1
102
RTVSPost2010PropOp29
 70
     1
102
RTVSPost2010Prop30
280
     1
102
RTVSPost2010PropOp30
 70
     1
102
RTVSPost2010Prop31
280
     0
102
RTVSPost2010PropOp31
 70
     1
102
RTVSPost2010Prop32
280
     0
102
RTVSPost2010PropOp32
 70
     1
102
RTVSPost2010Prop33
280
     0
102
RTVSPost2010PropOp33
 70
     1
102
RTVSPost2010Prop34
280
     0
102
RTVSPost2010PropOp34
 70
     1
102
RTVSPost2010Prop35
280
     0
102
RTVSPost2010PropOp35
 70
     1
102
RTVSPost2010Prop36
280
     0
102
RTVSPost2010PropOp36
 70
     1
102
RTVSPost2010Prop37
 90
       50
102
RTVSPost2010PropOp37
 70
     1
102
RTVSPost2010Prop38
140
0.0
102
RTVSPost2010PropOp38
 70
     1
102
RTVSPost2010Prop39
140
1.0
102
RTVSPost2010PropOp39
 70
     1
102
RTVSPost2010Prop40
 90
        0
102
RTVSPost2010PropOp40
 70
     1
102
RTVSPost2010Prop41ColorIndex
 90
       18
102
RTVSPost2010Prop41ColorRGB
 90
        0
102
RTVSPost2010PropOp41
 70
     1
102
RTVSPost2010Prop42
 90
       50
102
RTVSPost2010PropOp42
 70
     1
102
RTVSPost2010Prop43
 90
        3
102
RTVSPost2010PropOp43
 70
     1
102
RTVSPost2010Prop44ColorIndex
 90
        5
102
RTVSPost2010Prop44ColorRGB
 90
      255
102
RTVSPost2010PropOp44
 70
     1
102
RTVSPost2010Prop45
280
     0
102
RTVSPost2010PropOp45
 70
     1
102
RTVSPost2010Prop46
 90
       50
102
RTVSPost2010PropOp46
 70
     1
102
RTVSPost2010Prop47
 90
       50
102
RTVSPost2010PropOp47
 70
     1
102
RTVSPost2010Prop48
 90
       50
102
RTVSPost2010PropOp48
 70
     1
102
RTVSPost2010Prop49
280
     0
102
RTVSPost2010PropOp49
 70
     1
102
RTVSPost2010Prop50
 90
       50
102
RTVSPost2010PropOp50
 70
     1
102
RTVSPost2010Prop51ColorIndex
 90
      256
102
RTVSPost2010Prop51ColorRGB
 90
-16777216
102
RTVSPost2010PropOp51
 70
     0
102
RTVSPost2010Prop52
140
1.0
102
RTVSPost2010PropOp52
 70
     0
102
RTVSPost2010Prop53
 90
        2
102
RTVSPost2010PropOp53
 70
     1
102
RTVSPost2010Prop54
  1
strokes_ogs.tif
102
RTVSPost2010PropOp54
 70
     1
102
RTVSPost2010Prop55
280
     0
102
RTVSPost2010PropOp55
 70
     1
102
RTVSPost2010Prop56
140
1.0
102
RTVSPost2010PropOp56
 70
     1
102
RTVSPost2010Prop57
140
1.0
102
RTVSPost2010PropOp57
 70
     1
102
RTVSPropertyOp0
 70
     1
102
RTVSPropertyOp1
 70
     1
102
RTVSPropertyOp2
 70
     1
102
RTVSPropertyOp3
 70
     1
102
RTVSPropertyOp4
 70
     1
102
RTVSPropertyOp5
 70
     1
102
RTVSPropertyOp6
 70
     1
102
RTVSPropertyOp7
 70
     1
102
RTVSPropertyOp8
 70
     1
102
RTVSPropertyOp9
 70
     1
102
RTVSPropertyOp10
 70
     1
102
RTVSPropertyOp11
 70
     1
102
RTVSPropertyOp12
 70
     1
102
RTVSPropertyOp13
 70
     1
102
RTVSPropertyOp14
 70
     1
102
RTVSPropertyOp15
 70
     1
102
RTVSPropertyOp16
 70
     1
102
RTVSPropertyOp17
 70
     1
102
RTVSPropertyOp18
 70
     1
102
RTVSPropertyOp19
 70
     1
102
RTVSPropertyOp20
 70
     1
102
RTVSPropertyOp21
 70
     1
102
RTVSPropertyOp22
 70
     1
102
RTVSPropertyOp23
 70
     1
102
RTVSPropertyOp24
 70
     1
102
RTVSPropertyOp25
 70
     1
102
RTVSPropertyOp26
 70
     1
102
RTVSPropertyOp27
 70
     1
102
RTVSPropertyOp28
 70
     1
102
RTVSPropertyOp29
 70
     1
102
RTVSPropertyOp30
 70
     1
102
RTVSPropertyOp31
 70
     1
102
RTVSPropertyOp32
 70
     1
102
RTVSPropertyOp33
 70
     1
102
RTVSPropertyOp34
 70
     1
102
RTVSPropertyOp35
 70
     1
102
RTVSPropertyOp36
 70
     1
102
RTVSPropertyOp37
 70
     1
102
RTVSPropertyOp38
 70
     1
102
RTVSPropertyOp39
 70
     1
102
RTVSPropertyOp40
 70
     1
102
RTVSPropertyOp41
 70
     1
102
RTVSPropertyOp42
 70
     1
102
RTVSPropertyOp43
 70
     1
102
RTVSPropertyOp44
 70
     1
102
RTVSPropertyOp45
 70
     1
102
RTVSPropertyOp46
 70
     1
102
RTVSPropertyOp47
 70
     1
102
RTVSPropertyOp48
 70
     1
102
RTVSPropertyOp49
 70
     1
102
RTVSPropertyOp50
 70
     1
102
RTVSPropertyOp51
 70
     0
102
RTVSPropertyOp52
 70
     0
102
RTVSPropertyOp53
 70
     1
102
RTVSPropertyOp54
 70
     1
102
RTVSPropertyOp55
 70
     1
102
RTVSPropertyOp56
 70
     1
102
RTVSPropertyOp57
 70
     1
102
RTVSPropertyOp58
 70
     1
102
RTVSPropertyOp59
 70
     1
102
RTVSPropertyOp60
 70
     1
102
RTVSPropertyOp61
 70
     1
102
RTVSPropertyOp62
 70
     1
  0
XRECORD
  5
348
102
{ACAD_REACTORS
330
347
102
}
330
347
100
AcDbXrecord
280
     1
102
RTVSPost2010Prop28
280
     0
102
RTVSPost2010PropOp28
 70
     1
102
RTVSPost2010Prop29
280
     1
102
RTVSPost2010PropOp29
 70
     1
102
RTVSPost2010Prop30
280
     1
102
RTVSPost2010PropOp30
 70
     1
102
RTVSPost2010Prop31
280
     0
102
RTVSPost2010PropOp31
 70
     1
102
RTVSPost2010Prop32
280
     0
102
RTVSPost2010PropOp32
 70
     1
102
RTVSPost2010Prop33
280
     0
102
RTVSPost2010PropOp33
 70
     1
102
RTVSPost2010Prop34
280
     0
102
RTVSPost2010PropOp34
 70
     1
102
RTVSPost2010Prop35
280
     0
102
RTVSPost2010PropOp35
 70
     1
102
RTVSPost2010Prop36
280
     0
102
RTVSPost2010PropOp36
 70
     1
102
RTVSPost2010Prop37
 90
       50
102
RTVSPost2010PropOp37
 70
     1
102
RTVSPost2010Prop38
140
0.0
102
RTVSPost2010PropOp38
 70
     1
102
RTVSPost2010Prop39
140
1.0
102
RTVSPost2010PropOp39
 70
     1
102
RTVSPost2010Prop40
 90
        0
102
RTVSPost2010PropOp40
 70
     1
102
RTVSPost2010Prop41ColorIndex
 90
       18
102
RTVSPost2010Prop41ColorRGB
 90
        0
102
RTVSPost2010PropOp41
 70
     1
102
RTVSPost2010Prop42
 90
       50
102
RTVSPost2010PropOp42
 70
     1
102
RTVSPost2010Prop43
 90
        3
102
RTVSPost2010PropOp43
 70
     1
102
RTVSPost2010Prop44ColorIndex
 90
        5
102
RTVSPost2010Prop44ColorRGB
 90
      255
102
RTVSPost2010PropOp44
 70
     1
102
RTVSPost2010Prop45
280
     0
102
RTVSPost2010PropOp45
 70
     1
102
RTVSPost2010Prop46
 90
       50
102
RTVSPost2010PropOp46
 70
     1
102
RTVSPost2010Prop47
 90
       50
102
RTVSPost2010PropOp47
 70
     1
102
RTVSPost2010Prop48
 90
       50
102
RTVSPost2010PropOp48
 70
     1
102
RTVSPost2010Prop49
280
     0
102
RTVSPost2010PropOp49
 70
     1
102
RTVSPost2010Prop50
 90
       50
102
RTVSPost2010PropOp50
 70
     1
102
RTVSPost2010Prop51ColorIndex
 90
      256
102
RTVSPost2010Prop51ColorRGB
 90
-16777216
102
RTVSPost2010PropOp51
 70
     0
102
RTVSPost2010Prop52
140
1.0
102
RTVSPost2010PropOp52
 70
     0
102
RTVSPost2010Prop53
 90
        2
102
RTVSPost2010PropOp53
 70
     1
102
RTVSPost2010Prop54
  1
strokes_ogs.tif
102
RTVSPost2010PropOp54
 70
     1
102
RTVSPost2010Prop55
280
     0
102
RTVSPost2010PropOp55
 70
     1
102
RTVSPost2010Prop56
140
1.0
102
RTVSPost2010PropOp56
 70
     1
102
RTVSPost2010Prop57
140
1.0
102
RTVSPost2010PropOp57
 70
     1
102
RTVSPropertyOp0
 70
     1
102
RTVSPropertyOp1
 70
     1
102
RTVSPropertyOp2
 70
     1
102
RTVSPropertyOp3
 70
     1
102
RTVSPropertyOp4
 70
     1
102
RTVSPropertyOp5
 70
     1
102
RTVSPropertyOp6
 70
     1
102
RTVSPropertyOp7
 70
     1
102
RTVSPropertyOp8
 70
     1
102
RTVSPropertyOp9
 70
     1
102
RTVSPropertyOp10
 70
     1
102
RTVSPropertyOp11
 70
     1
102
RTVSPropertyOp12
 70
     1
102
RTVSPropertyOp13
 70
     1
102
RTVSPropertyOp14
 70
     1
102
RTVSPropertyOp15
 70
     1
102
RTVSPropertyOp16
 70
     1
102
RTVSPropertyOp17
 70
     1
102
RTVSPropertyOp18
 70
     1
102
RTVSPropertyOp19
 70
     1
102
RTVSPropertyOp20
 70
     1
102
RTVSPropertyOp21
 70
     1
102
RTVSPropertyOp22
 70
     1
102
RTVSPropertyOp23
 70
     1
102
RTVSPropertyOp24
 70
     1
102
RTVSPropertyOp25
 70
     1
102
RTVSPropertyOp26
 70
     1
102
RTVSPropertyOp27
 70
     1
102
RTVSPropertyOp28
 70
     1
102
RTVSPropertyOp29
 70
     1
102
RTVSPropertyOp30
 70
     1
102
RTVSPropertyOp31
 70
     1
102
RTVSPropertyOp32
 70
     1
102
RTVSPropertyOp33
 70
     1
102
RTVSPropertyOp34
 70
     1
102
RTVSPropertyOp35
 70
     1
102
RTVSPropertyOp36
 70
     1
102
RTVSPropertyOp37
 70
     1
102
RTVSPropertyOp38
 70
     1
102
RTVSPropertyOp39
 70
     1
102
RTVSPropertyOp40
 70
     1
102
RTVSPropertyOp41
 70
     1
102
RTVSPropertyOp42
 70
     1
102
RTVSPropertyOp43
 70
     1
102
RTVSPropertyOp44
 70
     1
102
RTVSPropertyOp45
 70
     1
102
RTVSPropertyOp46
 70
     1
102
RTVSPropertyOp47
 70
     1
102
RTVSPropertyOp48
 70
     1
102
RTVSPropertyOp49
 70
     1
102
RTVSPropertyOp50
 70
     1
102
RTVSPropertyOp51
 70
     0
102
RTVSPropertyOp52
 70
     0
102
RTVSPropertyOp53
 70
     1
102
RTVSPropertyOp54
 70
     1
102
RTVSPropertyOp55
 70
     1
102
RTVSPropertyOp56
 70
     1
102
RTVSPropertyOp57
 70
     1
102
RTVSPropertyOp58
 70
     1
102
RTVSPropertyOp59
 70
     1
102
RTVSPropertyOp60
 70
     1
102
RTVSPropertyOp61
 70
     1
102
RTVSPropertyOp62
 70
     1
  0
XRECORD
  5
33E
102
{ACAD_REACTORS
330
33D
102
}
330
33D
100
AcDbXrecord
280
     1
102
RTVSPost2010Prop28
280
     0
102
RTVSPost2010PropOp28
 70
     1
102
RTVSPost2010Prop29
280
     1
102
RTVSPost2010PropOp29
 70
     1
102
RTVSPost2010Prop30
280
     1
102
RTVSPost2010PropOp30
 70
     1
102
RTVSPost2010Prop31
280
     0
102
RTVSPost2010PropOp31
 70
     1
102
RTVSPost2010Prop32
280
     0
102
RTVSPost2010PropOp32
 70
     1
102
RTVSPost2010Prop33
280
     0
102
RTVSPost2010PropOp33
 70
     1
102
RTVSPost2010Prop34
280
     0
102
RTVSPost2010PropOp34
 70
     1
102
RTVSPost2010Prop35
280
     0
102
RTVSPost2010PropOp35
 70
     1
102
RTVSPost2010Prop36
280
     0
102
RTVSPost2010PropOp36
 70
     1
102
RTVSPost2010Prop37
 90
       50
102
RTVSPost2010PropOp37
 70
     1
102
RTVSPost2010Prop38
140
0.0
102
RTVSPost2010PropOp38
 70
     1
102
RTVSPost2010Prop39
140
1.0
102
RTVSPost2010PropOp39
 70
     1
102
RTVSPost2010Prop40
 90
        0
102
RTVSPost2010PropOp40
 70
     1
102
RTVSPost2010Prop41ColorIndex
 90
       18
102
RTVSPost2010Prop41ColorRGB
 90
        0
102
RTVSPost2010PropOp41
 70
     1
102
RTVSPost2010Prop42
 90
       50
102
RTVSPost2010PropOp42
 70
     1
102
RTVSPost2010Prop43
 90
        3
102
RTVSPost2010PropOp43
 70
     1
102
RTVSPost2010Prop44ColorIndex
 90
        5
102
RTVSPost2010Prop44ColorRGB
 90
      255
102
RTVSPost2010PropOp44
 70
     1
102
RTVSPost2010Prop45
280
     0
102
RTVSPost2010PropOp45
 70
     1
102
RTVSPost2010Prop46
 90
       50
102
RTVSPost2010PropOp46
 70
     1
102
RTVSPost2010Prop47
 90
       50
102
RTVSPost2010PropOp47
 70
     1
102
RTVSPost2010Prop48
 90
       50
102
RTVSPost2010PropOp48
 70
     1
102
RTVSPost2010Prop49
280
     0
102
RTVSPost2010PropOp49
 70
     1
102
RTVSPost2010Prop50
 90
       50
102
RTVSPost2010PropOp50
 70
     1
102
RTVSPost2010Prop51ColorIndex
 90
      256
102
RTVSPost2010Prop51ColorRGB
 90
-16777216
102
RTVSPost2010PropOp51
 70
     0
102
RTVSPost2010Prop52
140
1.0
102
RTVSPost2010PropOp52
 70
     0
102
RTVSPost2010Prop53
 90
        2
102
RTVSPost2010PropOp53
 70
     1
102
RTVSPost2010Prop54
  1
strokes_ogs.tif
102
RTVSPost2010PropOp54
 70
     1
102
RTVSPost2010Prop55
280
     0
102
RTVSPost2010PropOp55
 70
     1
102
RTVSPost2010Prop56
140
1.0
102
RTVSPost2010PropOp56
 70
     1
102
RTVSPost2010Prop57
140
1.0
102
RTVSPost2010PropOp57
 70
     1
102
RTVSPropertyOp0
 70
     1
102
RTVSPropertyOp1
 70
     1
102
RTVSPropertyOp2
 70
     1
102
RTVSPropertyOp3
 70
     1
102
RTVSPropertyOp4
 70
     1
102
RTVSPropertyOp5
 70
     1
102
RTVSPropertyOp6
 70
     1
102
RTVSPropertyOp7
 70
     1
102
RTVSPropertyOp8
 70
     1
102
RTVSPropertyOp9
 70
     1
102
RTVSPropertyOp10
 70
     1
102
RTVSPropertyOp11
 70
     1
102
RTVSPropertyOp12
 70
     1
102
RTVSPropertyOp13
 70
     1
102
RTVSPropertyOp14
 70
     1
102
RTVSPropertyOp15
 70
     1
102
RTVSPropertyOp16
 70
     1
102
RTVSPropertyOp17
 70
     1
102
RTVSPropertyOp18
 70
     1
102
RTVSPropertyOp19
 70
     1
102
RTVSPropertyOp20
 70
     1
102
RTVSPropertyOp21
 70
     1
102
RTVSPropertyOp22
 70
     1
102
RTVSPropertyOp23
 70
     1
102
RTVSPropertyOp24
 70
     1
102
RTVSPropertyOp25
 70
     1
102
RTVSPropertyOp26
 70
     1
102
RTVSPropertyOp27
 70
     1
102
RTVSPropertyOp28
 70
     1
102
RTVSPropertyOp29
 70
     1
102
RTVSPropertyOp30
 70
     1
102
RTVSPropertyOp31
 70
     1
102
RTVSPropertyOp32
 70
     1
102
RTVSPropertyOp33
 70
     1
102
RTVSPropertyOp34
 70
     1
102
RTVSPropertyOp35
 70
     1
102
RTVSPropertyOp36
 70
     1
102
RTVSPropertyOp37
 70
     1
102
RTVSPropertyOp38
 70
     1
102
RTVSPropertyOp39
 70
     1
102
RTVSPropertyOp40
 70
     1
102
RTVSPropertyOp41
 70
     1
102
RTVSPropertyOp42
 70
     1
102
RTVSPropertyOp43
 70
     1
102
RTVSPropertyOp44
 70
     1
102
RTVSPropertyOp45
 70
     1
102
RTVSPropertyOp46
 70
     1
102
RTVSPropertyOp47
 70
     1
102
RTVSPropertyOp48
 70
     1
102
RTVSPropertyOp49
 70
     1
102
RTVSPropertyOp50
 70
     1
102
RTVSPropertyOp51
 70
     0
102
RTVSPropertyOp52
 70
     0
102
RTVSPropertyOp53
 70
     1
102
RTVSPropertyOp54
 70
     1
102
RTVSPropertyOp55
 70
     1
102
RTVSPropertyOp56
 70
     1
102
RTVSPropertyOp57
 70
     1
102
RTVSPropertyOp58
 70
     1
102
RTVSPropertyOp59
 70
     1
102
RTVSPropertyOp60
 70
     1
102
RTVSPropertyOp61
 70
     1
102
RTVSPropertyOp62
 70
     1
  0
XRECORD
  5
332
102
{ACAD_REACTORS
330
331
102
}
330
331
100
AcDbXrecord
280
     1
102
RTVSPost2010Prop28
280
     0
102
RTVSPost2010PropOp28
 70
     1
102
RTVSPost2010Prop29
280
     1
102
RTVSPost2010PropOp29
 70
     1
102
RTVSPost2010Prop30
280
     1
102
RTVSPost2010PropOp30
 70
     1
102
RTVSPost2010Prop31
280
     0
102
RTVSPost2010PropOp31
 70
     1
102
RTVSPost2010Prop32
280
     0
102
RTVSPost2010PropOp32
 70
     1
102
RTVSPost2010Prop33
280
     0
102
RTVSPost2010PropOp33
 70
     1
102
RTVSPost2010Prop34
280
     0
102
RTVSPost2010PropOp34
 70
     1
102
RTVSPost2010Prop35
280
     0
102
RTVSPost2010PropOp35
 70
     1
102
RTVSPost2010Prop36
280
     0
102
RTVSPost2010PropOp36
 70
     1
102
RTVSPost2010Prop37
 90
       50
102
RTVSPost2010PropOp37
 70
     1
102
RTVSPost2010Prop38
140
0.0
102
RTVSPost2010PropOp38
 70
     1
102
RTVSPost2010Prop39
140
1.0
102
RTVSPost2010PropOp39
 70
     1
102
RTVSPost2010Prop40
 90
        0
102
RTVSPost2010PropOp40
 70
     1
102
RTVSPost2010Prop41ColorIndex
 90
       18
102
RTVSPost2010Prop41ColorRGB
 90
        0
102
RTVSPost2010PropOp41
 70
     1
102
RTVSPost2010Prop42
 90
       50
102
RTVSPost2010PropOp42
 70
     1
102
RTVSPost2010Prop43
 90
        3
102
RTVSPost2010PropOp43
 70
     1
102
RTVSPost2010Prop44ColorIndex
 90
        5
102
RTVSPost2010Prop44ColorRGB
 90
      255
102
RTVSPost2010PropOp44
 70
     1
102
RTVSPost2010Prop45
280
     0
102
RTVSPost2010PropOp45
 70
     1
102
RTVSPost2010Prop46
 90
       50
102
RTVSPost2010PropOp46
 70
     1
102
RTVSPost2010Prop47
 90
       50
102
RTVSPost2010PropOp47
 70
     1
102
RTVSPost2010Prop48
 90
       50
102
RTVSPost2010PropOp48
 70
     1
102
RTVSPost2010Prop49
280
     0
102
RTVSPost2010PropOp49
 70
     1
102
RTVSPost2010Prop50
 90
       50
102
RTVSPost2010PropOp50
 70
     1
102
RTVSPost2010Prop51ColorIndex
 90
      256
102
RTVSPost2010Prop51ColorRGB
 90
-16777216
102
RTVSPost2010PropOp51
 70
     0
102
RTVSPost2010Prop52
140
1.0
102
RTVSPost2010PropOp52
 70
     0
102
RTVSPost2010Prop53
 90
        2
102
RTVSPost2010PropOp53
 70
     1
102
RTVSPost2010Prop54
  1
strokes_ogs.tif
102
RTVSPost2010PropOp54
 70
     1
102
RTVSPost2010Prop55
280
     0
102
RTVSPost2010PropOp55
 70
     1
102
RTVSPost2010Prop56
140
1.0
102
RTVSPost2010PropOp56
 70
     1
102
RTVSPost2010Prop57
140
1.0
102
RTVSPost2010PropOp57
 70
     1
102
RTVSPropertyOp0
 70
     1
102
RTVSPropertyOp1
 70
     1
102
RTVSPropertyOp2
 70
     1
102
RTVSPropertyOp3
 70
     1
102
RTVSPropertyOp4
 70
     1
102
RTVSPropertyOp5
 70
     1
102
RTVSPropertyOp6
 70
     1
102
RTVSPropertyOp7
 70
     1
102
RTVSPropertyOp8
 70
     1
102
RTVSPropertyOp9
 70
     1
102
RTVSPropertyOp10
 70
     1
102
RTVSPropertyOp11
 70
     1
102
RTVSPropertyOp12
 70
     1
102
RTVSPropertyOp13
 70
     1
102
RTVSPropertyOp14
 70
     1
102
RTVSPropertyOp15
 70
     1
102
RTVSPropertyOp16
 70
     1
102
RTVSPropertyOp17
 70
     1
102
RTVSPropertyOp18
 70
     1
102
RTVSPropertyOp19
 70
     1
102
RTVSPropertyOp20
 70
     1
102
RTVSPropertyOp21
 70
     1
102
RTVSPropertyOp22
 70
     1
102
RTVSPropertyOp23
 70
     1
102
RTVSPropertyOp24
 70
     1
102
RTVSPropertyOp25
 70
     1
102
RTVSPropertyOp26
 70
     1
102
RTVSPropertyOp27
 70
     1
102
RTVSPropertyOp28
 70
     1
102
RTVSPropertyOp29
 70
     1
102
RTVSPropertyOp30
 70
     1
102
RTVSPropertyOp31
 70
     1
102
RTVSPropertyOp32
 70
     1
102
RTVSPropertyOp33
 70
     1
102
RTVSPropertyOp34
 70
     1
102
RTVSPropertyOp35
 70
     1
102
RTVSPropertyOp36
 70
     1
102
RTVSPropertyOp37
 70
     1
102
RTVSPropertyOp38
 70
     1
102
RTVSPropertyOp39
 70
     1
102
RTVSPropertyOp40
 70
     1
102
RTVSPropertyOp41
 70
     1
102
RTVSPropertyOp42
 70
     1
102
RTVSPropertyOp43
 70
     1
102
RTVSPropertyOp44
 70
     1
102
RTVSPropertyOp45
 70
     1
102
RTVSPropertyOp46
 70
     1
102
RTVSPropertyOp47
 70
     1
102
RTVSPropertyOp48
 70
     1
102
RTVSPropertyOp49
 70
     1
102
RTVSPropertyOp50
 70
     1
102
RTVSPropertyOp51
 70
     0
102
RTVSPropertyOp52
 70
     0
102
RTVSPropertyOp53
 70
     1
102
RTVSPropertyOp54
 70
     1
102
RTVSPropertyOp55
 70
     1
102
RTVSPropertyOp56
 70
     1
102
RTVSPropertyOp57
 70
     1
102
RTVSPropertyOp58
 70
     1
102
RTVSPropertyOp59
 70
     1
102
RTVSPropertyOp60
 70
     1
102
RTVSPropertyOp61
 70
     1
102
RTVSPropertyOp62
 70
     1
  0
XRECORD
  5
34A
102
{ACAD_REACTORS
330
349
102
}
330
349
100
AcDbXrecord
280
     1
102
RTVSPost2010Prop28
280
     0
102
RTVSPost2010PropOp28
 70
     1
102
RTVSPost2010Prop29
280
     1
102
RTVSPost2010PropOp29
 70
     1
102
RTVSPost2010Prop30
280
     1
102
RTVSPost2010PropOp30
 70
     1
102
RTVSPost2010Prop31
280
     0
102
RTVSPost2010PropOp31
 70
     1
102
RTVSPost2010Prop32
280
     0
102
RTVSPost2010PropOp32
 70
     1
102
RTVSPost2010Prop33
280
     0
102
RTVSPost2010PropOp33
 70
     1
102
RTVSPost2010Prop34
280
     0
102
RTVSPost2010PropOp34
 70
     1
102
RTVSPost2010Prop35
280
     0
102
RTVSPost2010PropOp35
 70
     1
102
RTVSPost2010Prop36
280
     0
102
RTVSPost2010PropOp36
 70
     1
102
RTVSPost2010Prop37
 90
       50
102
RTVSPost2010PropOp37
 70
     1
102
RTVSPost2010Prop38
140
0.0
102
RTVSPost2010PropOp38
 70
     1
102
RTVSPost2010Prop39
140
1.0
102
RTVSPost2010PropOp39
 70
     1
102
RTVSPost2010Prop40
 90
        0
102
RTVSPost2010PropOp40
 70
     1
102
RTVSPost2010Prop41ColorIndex
 90
       18
102
RTVSPost2010Prop41ColorRGB
 90
        0
102
RTVSPost2010PropOp41
 70
     1
102
RTVSPost2010Prop42
 90
       50
102
RTVSPost2010PropOp42
 70
     1
102
RTVSPost2010Prop43
 90
        3
102
RTVSPost2010PropOp43
 70
     1
102
RTVSPost2010Prop44ColorIndex
 90
        5
102
RTVSPost2010Prop44ColorRGB
 90
      255
102
RTVSPost2010PropOp44
 70
     1
102
RTVSPost2010Prop45
280
     0
102
RTVSPost2010PropOp45
 70
     1
102
RTVSPost2010Prop46
 90
       50
102
RTVSPost2010PropOp46
 70
     1
102
RTVSPost2010Prop47
 90
       50
102
RTVSPost2010PropOp47
 70
     1
102
RTVSPost2010Prop48
 90
       50
102
RTVSPost2010PropOp48
 70
     1
102
RTVSPost2010Prop49
280
     0
102
RTVSPost2010PropOp49
 70
     1
102
RTVSPost2010Prop50
 90
       50
102
RTVSPost2010PropOp50
 70
     1
102
RTVSPost2010Prop51ColorIndex
 90
      256
102
RTVSPost2010Prop51ColorRGB
 90
-16777216
102
RTVSPost2010PropOp51
 70
     0
102
RTVSPost2010Prop52
140
1.0
102
RTVSPost2010PropOp52
 70
     0
102
RTVSPost2010Prop53
 90
        2
102
RTVSPost2010PropOp53
 70
     1
102
RTVSPost2010Prop54
  1
strokes_ogs.tif
102
RTVSPost2010PropOp54
 70
     1
102
RTVSPost2010Prop55
280
     0
102
RTVSPost2010PropOp55
 70
     1
102
RTVSPost2010Prop56
140
1.0
102
RTVSPost2010PropOp56
 70
     1
102
RTVSPost2010Prop57
140
1.0
102
RTVSPost2010PropOp57
 70
     1
102
RTVSPropertyOp0
 70
     1
102
RTVSPropertyOp1
 70
     1
102
RTVSPropertyOp2
 70
     1
102
RTVSPropertyOp3
 70
     1
102
RTVSPropertyOp4
 70
     1
102
RTVSPropertyOp5
 70
     1
102
RTVSPropertyOp6
 70
     1
102
RTVSPropertyOp7
 70
     1
102
RTVSPropertyOp8
 70
     1
102
RTVSPropertyOp9
 70
     1
102
RTVSPropertyOp10
 70
     1
102
RTVSPropertyOp11
 70
     1
102
RTVSPropertyOp12
 70
     1
102
RTVSPropertyOp13
 70
     1
102
RTVSPropertyOp14
 70
     1
102
RTVSPropertyOp15
 70
     1
102
RTVSPropertyOp16
 70
     1
102
RTVSPropertyOp17
 70
     1
102
RTVSPropertyOp18
 70
     1
102
RTVSPropertyOp19
 70
     1
102
RTVSPropertyOp20
 70
     1
102
RTVSPropertyOp21
 70
     1
102
RTVSPropertyOp22
 70
     1
102
RTVSPropertyOp23
 70
     1
102
RTVSPropertyOp24
 70
     1
102
RTVSPropertyOp25
 70
     1
102
RTVSPropertyOp26
 70
     1
102
RTVSPropertyOp27
 70
     1
102
RTVSPropertyOp28
 70
     1
102
RTVSPropertyOp29
 70
     1
102
RTVSPropertyOp30
 70
     1
102
RTVSPropertyOp31
 70
     1
102
RTVSPropertyOp32
 70
     1
102
RTVSPropertyOp33
 70
     1
102
RTVSPropertyOp34
 70
     1
102
RTVSPropertyOp35
 70
     1
102
RTVSPropertyOp36
 70
     1
102
RTVSPropertyOp37
 70
     1
102
RTVSPropertyOp38
 70
     1
102
RTVSPropertyOp39
 70
     1
102
RTVSPropertyOp40
 70
     1
102
RTVSPropertyOp41
 70
     1
102
RTVSPropertyOp42
 70
     1
102
RTVSPropertyOp43
 70
     1
102
RTVSPropertyOp44
 70
     1
102
RTVSPropertyOp45
 70
     1
102
RTVSPropertyOp46
 70
     1
102
RTVSPropertyOp47
 70
     1
102
RTVSPropertyOp48
 70
     1
102
RTVSPropertyOp49
 70
     1
102
RTVSPropertyOp50
 70
     1
102
RTVSPropertyOp51
 70
     0
102
RTVSPropertyOp52
 70
     0
102
RTVSPropertyOp53
 70
     1
102
RTVSPropertyOp54
 70
     1
102
RTVSPropertyOp55
 70
     1
102
RTVSPropertyOp56
 70
     1
102
RTVSPropertyOp57
 70
     1
102
RTVSPropertyOp58
 70
     1
102
RTVSPropertyOp59
 70
     1
102
RTVSPropertyOp60
 70
     1
102
RTVSPropertyOp61
 70
     1
102
RTVSPropertyOp62
 70
     1
  0
ENDSEC
  0
EOF
